  0
SECTION
  2
HEADER
  9
$ACADVER
  1
AC1015
  9
$ACADMAINTVER
 70
     6
  9
$DWGCODEPAGE
  3
ANSI_932
  9
$INSBASE
 10
0.0
 20
0.0
 30
0.0
  9
$EXTMIN
 10
32.83089870876735
 20
8.257337938079605
 30
0.0
  9
$EXTMAX
 10
269.4460701691422
 20
187.8887898763021
 30
0.0
  9
$LIMMIN
 10
32.58061252170138
 20
7.584722222222221
  9
$LIMMAX
 10
269.2307671440972
 20
187.8887898763021
  9
$ORTHOMODE
 70
     0
  9
$REGENMODE
 70
     1
  9
$FILLMODE
 70
     1
  9
$QTEXTMODE
 70
     0
  9
$MIRRTEXT
 70
     1
  9
$LTSCALE
 40
1.0
  9
$ATTMODE
 70
     1
  9
$TEXTSIZE
 40
0.2
  9
$TRACEWID
 40
0.05
  9
$TEXTSTYLE
  7
Standard
  9
$CLAYER
  8
0
  9
$CELTYPE
  6
Continuous
  9
$CECOLOR
 62
   256
  9
$CELTSCALE
 40
1.0
  9
$DISPSILH
 70
     0
  9
$DIMSCALE
 40
1.0
  9
$DIMASZ
 40
0.18
  9
$DIMEXO
 40
0.0625
  9
$DIMDLI
 40
0.38
  9
$DIMRND
 40
0.0
  9
$DIMDLE
 40
0.0
  9
$DIMEXE
 40
0.18
  9
$DIMTP
 40
0.0
  9
$DIMTM
 40
0.0
  9
$DIMTXT
 40
0.18
  9
$DIMCEN
 40
0.09
  9
$DIMTSZ
 40
0.0
  9
$DIMTOL
 70
     0
  9
$DIMLIM
 70
     0
  9
$DIMTIH
 70
     1
  9
$DIMTOH
 70
     1
  9
$DIMSE1
 70
     0
  9
$DIMSE2
 70
     0
  9
$DIMTAD
 70
     0
  9
$DIMZIN
 70
     0
  9
$DIMBLK
  1

  9
$DIMASO
 70
     1
  9
$DIMSHO
 70
     1
  9
$DIMPOST
  1

  9
$DIMAPOST
  1

  9
$DIMALT
 70
     0
  9
$DIMALTD
 70
     2
  9
$DIMALTF
 40
25.4
  9
$DIMLFAC
 40
1.0
  9
$DIMTOFL
 70
     0
  9
$DIMTVP
 40
0.0
  9
$DIMTIX
 70
     0
  9
$DIMSOXD
 70
     0
  9
$DIMSAH
 70
     0
  9
$DIMBLK1
  1

  9
$DIMBLK2
  1

  9
$DIMSTYLE
  2
Standard
  9
$DIMCLRD
 70
     0
  9
$DIMCLRE
 70
     0
  9
$DIMCLRT
 70
     0
  9
$DIMTFAC
 40
1.0
  9
$DIMGAP
 40
0.09
  9
$DIMJUST
 70
     0
  9
$DIMSD1
 70
     0
  9
$DIMSD2
 70
     0
  9
$DIMTOLJ
 70
     1
  9
$DIMTZIN
 70
     0
  9
$DIMALTZ
 70
     0
  9
$DIMALTTZ
 70
     0
  9
$DIMUPT
 70
     0
  9
$DIMDEC
 70
     4
  9
$DIMTDEC
 70
     4
  9
$DIMALTU
 70
     2
  9
$DIMALTTD
 70
     2
  9
$DIMTXSTY
  7
Standard
  9
$DIMAUNIT
 70
     0
  9
$DIMADEC
 70
     0
  9
$DIMALTRND
 40
0.0
  9
$DIMAZIN
 70
     0
  9
$DIMDSEP
 70
     0
  9
$DIMATFIT
 70
     3
  9
$DIMFRAC
 70
     0
  9
$DIMLDRBLK
  1

  9
$DIMLUNIT
 70
     2
  9
$DIMLWD
 70
     0
  9
$DIMLWE
 70
     0
  9
$DIMTMOVE
 70
     0
  9
$LUNITS
 70
     2
  9
$LUPREC
 70
     4
  9
$SKETCHINC
 40
0.1
  9
$FILLETRAD
 40
0.0
  9
$AUNITS
 70
     0
  9
$AUPREC
 70
     0
  9
$MENU
  1
.
  9
$ELEVATION
 40
0.0
  9
$PELEVATION
 40
0.0
  9
$THICKNESS
 40
0.0
  9
$LIMCHECK
 70
     0
  9
$CHAMFERA
 40
0.0
  9
$CHAMFERB
 40
0.0
  9
$CHAMFERC
 40
0.0
  9
$CHAMFERD
 40
0.0
  9
$SKPOLY
 70
     0
  9
$TDCREATE
 40
2453353.800459155
  9
$TDUCREATE
 40
2453353.717125822
  9
$TDUPDATE
 40
2455328.619505174
  9
$TDUUPDATE
 40
2455328.536171841
  9
$TDINDWG
 40
0.043506956
  9
$TDUSRTIMER
 40
0.043506956
  9
$USRTIMER
 70
     1
  9
$ANGBASE
 50
0.0
  9
$ANGDIR
 70
     0
  9
$PDMODE
 70
     0
  9
$PDSIZE
 40
0.0
  9
$PLINEWID
 40
0.0
  9
$SPLFRAME
 70
     0
  9
$SPLINETYPE
 70
     6
  9
$SPLINESEGS
 70
     8
  9
$HANDSEED
  5
22E
  9
$SURFTAB1
 70
     6
  9
$SURFTAB2
 70
     6
  9
$SURFTYPE
 70
     6
  9
$SURFU
 70
     6
  9
$SURFV
 70
     6
  9
$UCSBASE
  2

  9
$UCSNAME
  2

  9
$UCSORG
 10
0.0
 20
0.0
 30
0.0
  9
$UCSXDIR
 10
1.0
 20
0.0
 30
0.0
  9
$UCSYDIR
 10
0.0
 20
1.0
 30
0.0
  9
$UCSORTHOREF
  2

  9
$UCSORTHOVIEW
 70
     0
  9
$UCSORGTOP
 10
0.0
 20
0.0
 30
0.0
  9
$UCSORGBOTTOM
 10
0.0
 20
0.0
 30
0.0
  9
$UCSORGLEFT
 10
0.0
 20
0.0
 30
0.0
  9
$UCSORGRIGHT
 10
0.0
 20
0.0
 30
0.0
  9
$UCSORGFRONT
 10
0.0
 20
0.0
 30
0.0
  9
$UCSORGBACK
 10
0.0
 20
0.0
 30
0.0
  9
$PUCSBASE
  2

  9
$PUCSNAME
  2

  9
$PUCSORG
 10
0.0
 20
0.0
 30
0.0
  9
$PUCSXDIR
 10
1.0
 20
0.0
 30
0.0
  9
$PUCSYDIR
 10
0.0
 20
1.0
 30
0.0
  9
$PUCSORTHOREF
  2

  9
$PUCSORTHOVIEW
 70
     0
  9
$PUCSORGTOP
 10
0.0
 20
0.0
 30
0.0
  9
$PUCSORGBOTTOM
 10
0.0
 20
0.0
 30
0.0
  9
$PUCSORGLEFT
 10
0.0
 20
0.0
 30
0.0
  9
$PUCSORGRIGHT
 10
0.0
 20
0.0
 30
0.0
  9
$PUCSORGFRONT
 10
0.0
 20
0.0
 30
0.0
  9
$PUCSORGBACK
 10
0.0
 20
0.0
 30
0.0
  9
$USERI1
 70
     0
  9
$USERI2
 70
     0
  9
$USERI3
 70
     0
  9
$USERI4
 70
     0
  9
$USERI5
 70
     0
  9
$USERR1
 40
0.0
  9
$USERR2
 40
0.0
  9
$USERR3
 40
0.0
  9
$USERR4
 40
0.0
  9
$USERR5
 40
0.0
  9
$WORLDVIEW
 70
     1
  9
$SHADEDGE
 70
     3
  9
$SHADEDIF
 70
    70
  9
$TILEMODE
 70
     1
  9
$MAXACTVP
 70
    16
  9
$PINSBASE
 10
0.0
 20
0.0
 30
0.0
  9
$PLIMCHECK
 70
     0
  9
$PEXTMIN
 10
0.0
 20
0.0
 30
0.0
  9
$PEXTMAX
 10
0.0
 20
0.0
 30
0.0
  9
$PLIMMIN
 10
0.0
 20
0.0
  9
$PLIMMAX
 10
0.0
 20
0.0
  9
$UNITMODE
 70
     0
  9
$VISRETAIN
 70
     0
  9
$PLINEGEN
 70
     1
  9
$PSLTSCALE
 70
     0
  9
$TREEDEPTH
 70
  3020
  9
$CMLSTYLE
  2
Standard
  9
$CMLJUST
 70
     0
  9
$CMLSCALE
 40
1.0
  9
$PROXYGRAPHICS
 70
     0
  9
$MEASUREMENT
 70
     0
  9
$CELWEIGHT
370
     0
  9
$ENDCAPS
280
     0
  9
$JOINSTYLE
280
     0
  9
$LWDISPLAY
290
     0
  9
$INSUNITS
 70
     0
  9
$HYPERLINKBASE
  1

  9
$STYLESHEET
  1

  9
$XEDIT
290
     0
  9
$CEPSNTYPE
380
     0
  9
$PSTYLEMODE
290
     1
  9
$FINGERPRINTGUID
  2

  9
$VERSIONGUID
  2

  9
$EXTNAMES
290
     1
  9
$PSVPSCALE
 40
0.0
  9
$OLESTARTUP
290
     0
  0
ENDSEC
  0
SECTION
  2
CLASSES
  0
CLASS
  1
ACDBDICTIONARYWDFLT
  2
AcDbDictionaryWithDefault
  3
ObjectDBX Classes
 90
        0
280
     0
281
     0
  0
CLASS
  1
ACDBPLACEHOLDER
  2
AcDbPlaceHolder
  3
ObjectDBX Classes
 90
        0
280
     0
281
     0
  0
CLASS
  1
LAYOUT
  2
AcDbLayout
  3
ObjectDBX Classes
 90
        0
280
     0
281
     0
  0
CLASS
  1
DICTIONARYVAR
  2
AcDbDictionaryVar
  3
ObjectDBX Classes
 90
        0
280
     0
281
     0
  0
CLASS
  1
TABLESTYLE
  2
AcDbTableStyle
  3
ObjectDBX Classes
 90
     4095
280
     0
281
     0
  0
CLASS
  1
SCALE
  2
AcDbScale
  3
ObjectDBX Classes
 90
     1153
280
     0
281
     0
  0
CLASS
  1
WIPEOUTVARIABLES
  2
AcDbWipeoutVariables
  3
WipeOut|AutoCAD Express Tool|expresstools@autodesk.com
 90
        0
280
     0
281
     0
  0
ENDSEC
  0
SECTION
  2
TABLES
  0
TABLE
  2
VPORT
  5
8
330
0
100
AcDbSymbolTable
 70
     2
  0
VPORT
  5
97
330
8
100
AcDbSymbolTableRecord
100
AcDbViewportTableRecord
  2
*ACTIVE
 70
     0
 10
0.0
 20
0.0
 11
1.0
 21
1.0
 12
151.1384844389548
 22
98.07306390719084
 13
0.0
 23
0.0
 14
1.0
 24
1.0
 15
0.0
 25
0.0
 16
0.0
 26
0.0
 36
1.0
 17
0.0
 27
0.0
 37
0.0
 40
183.2240809769869
 41
0.688564
 42
50.0
 43
0.0
 44
0.0
 50
0.0
 51
0.0
 71
    16
 72
   100
 73
     1
 74
     1
 75
     0
 76
     0
 77
     0
 78
     0
281
     0
 65
     0
110
0.0
120
0.0
130
0.0
111
1.0
121
0.0
131
0.0
112
0.0
122
1.0
132
0.0
 79
     0
146
0.0
  0
ENDTAB
  0
TABLE
  2
LTYPE
  5
5
330
0
100
AcDbSymbolTable
 70
     2
  0
LTYPE
  5
14
330
5
100
AcDbSymbolTableRecord
100
AcDbLinetypeTableRecord
  2
ByBlock
 70
     0
  3

 72
    65
 73
     0
 40
0.0
  0
LTYPE
  5
15
330
5
100
AcDbSymbolTableRecord
100
AcDbLinetypeTableRecord
  2
ByLayer
 70
     0
  3

 72
    65
 73
     0
 40
0.0
  0
LTYPE
  5
16
330
5
100
AcDbSymbolTableRecord
100
AcDbLinetypeTableRecord
  2
Continuous
 70
     0
  3
Solid line
 72
    65
 73
     0
 40
0.0
  0
LTYPE
  5
205
330
5
100
AcDbSymbolTableRecord
100
AcDbLinetypeTableRecord
  2
AI9-LType1
 70
     0
  3
Illustrator Dash Style No.1
 72
    65
 73
     4
 40
2.700019992060131
 49
1.5999883029196
 74
     4
 75
     0
340
0
 46
1.0
 50
0.0
 44
0.0
 45
0.0
 49
-0.4000147385729683
 74
     4
 75
     0
340
0
 46
1.0
 50
0.0
 44
0.0
 45
0.0
 49
0.300002211994595
 74
     4
 75
     0
340
0
 46
1.0
 50
0.0
 44
0.0
 45
0.0
 49
-0.4000147385729683
 74
     4
 75
     0
340
0
 46
1.0
 50
0.0
 44
0.0
 45
0.0
  0
ENDTAB
  0
TABLE
  2
LAYER
  5
2
330
0
100
AcDbSymbolTable
 70
     2
  0
LAYER
  5
10
330
2
100
AcDbSymbolTableRecord
100
AcDbLayerTableRecord
  2
0
 70
     0
 62
     7
  6
Continuous
370
    -3
390
F
  0
LAYER
  5
28
330
2
100
AcDbSymbolTableRecord
100
AcDbLayerTableRecord
  2
EBENE_1
 70
     0
 62
   160
  6
Continuous
370
    -3
390
F
  0
ENDTAB
  0
TABLE
  2
STYLE
  5
3
330
0
100
AcDbSymbolTable
 70
     5
  0
STYLE
  5
11
330
3
100
AcDbSymbolTableRecord
100
AcDbTextStyleTableRecord
  2
Standard
 70
     0
 40
0.0
 41
1.0
 50
0.0
 71
     0
 42
0.2
  3
txt
  4

  0
STYLE
  5
24
330
3
100
AcDbSymbolTableRecord
100
AcDbTextStyleTableRecord
  2
STD
 70
     0
 40
0.0
 41
1.0
 50
0.0
 71
     0
 42
0.2
  3
txt
  4

  0
STYLE
  5
25
330
3
100
AcDbSymbolTableRecord
100
AcDbTextStyleTableRecord
  2
TATESTD
 70
     4
 40
0.0
 41
1.0
 50
0.0
 71
     0
 42
0.2
  3
txt
  4

  0
STYLE
  5
26
330
3
100
AcDbSymbolTableRecord
100
AcDbTextStyleTableRecord
  2
KANJISTD
 70
     0
 40
0.0
 41
1.0
 50
0.0
 71
     0
 42
0.2
  3
txt
  4
extfont
  0
STYLE
  5
187
330
3
100
AcDbSymbolTableRecord
100
AcDbTextStyleTableRecord
  2
KANJITATE
 70
     4
 40
0.0
 41
1.0
 50
0.0
 71
     0
 42
0.2
  3
txt
  4
extfont
  0
ENDTAB
  0
TABLE
  2
VIEW
  5
6
330
0
100
AcDbSymbolTable
 70
     0
  0
ENDTAB
  0
TABLE
  2
UCS
  5
7
330
0
100
AcDbSymbolTable
 70
     0
  0
ENDTAB
  0
TABLE
  2
APPID
  5
9
330
0
100
AcDbSymbolTable
 70
     1
  0
APPID
  5
12
330
9
100
AcDbSymbolTableRecord
100
AcDbRegAppTableRecord
  2
ACAD
 70
     0
  0
ENDTAB
  0
TABLE
  2
DIMSTYLE
  5
A
330
0
100
AcDbSymbolTable
 70
     1
100
AcDbDimStyleTable
  0
DIMSTYLE
105
27
330
A
100
AcDbSymbolTableRecord
100
AcDbDimStyleTableRecord
  2
Standard
 70
     0
289
     0
340
11
  0
ENDTAB
  0
TABLE
  2
BLOCK_RECORD
  5
1
330
0
100
AcDbSymbolTable
 70
    15
  0
BLOCK_RECORD
  5
1F
102
{ACAD_XDICTIONARY
360
228
102
}
330
1
100
AcDbSymbolTableRecord
100
AcDbBlockTableRecord
  2
*Model_Space
340
22
  0
BLOCK_RECORD
  5
73
330
1
100
AcDbSymbolTableRecord
100
AcDbBlockTableRecord
  2
*Paper_Space
340
74
  0
BLOCK_RECORD
  5
36
330
1
100
AcDbSymbolTableRecord
100
AcDbBlockTableRecord
  2
AI9-BLK1
340
0
102
{BLKREFS
331
37
102
}
  0
BLOCK_RECORD
  5
39
330
1
100
AcDbSymbolTableRecord
100
AcDbBlockTableRecord
  2
AI9-BLK2
340
0
102
{BLKREFS
331
3A
102
}
  0
BLOCK_RECORD
  5
4D
330
1
100
AcDbSymbolTableRecord
100
AcDbBlockTableRecord
  2
AI9-BLK3
340
0
102
{BLKREFS
331
4E
102
}
  0
BLOCK_RECORD
  5
50
330
1
100
AcDbSymbolTableRecord
100
AcDbBlockTableRecord
  2
AI9-BLK4
340
0
102
{BLKREFS
331
51
102
}
  0
BLOCK_RECORD
  5
192
330
1
100
AcDbSymbolTableRecord
100
AcDbBlockTableRecord
  2
AI9-BLK5
340
0
102
{BLKREFS
331
77
102
}
  0
BLOCK_RECORD
  5
79
330
1
100
AcDbSymbolTableRecord
100
AcDbBlockTableRecord
  2
AI9-BLK6
340
0
102
{BLKREFS
331
7A
102
}
  0
BLOCK_RECORD
  5
86
330
1
100
AcDbSymbolTableRecord
100
AcDbBlockTableRecord
  2
AI9-BLK7
340
0
102
{BLKREFS
331
87
102
}
  0
BLOCK_RECORD
  5
89
330
1
100
AcDbSymbolTableRecord
100
AcDbBlockTableRecord
  2
AI9-BLK8
340
0
102
{BLKREFS
331
8A
102
}
  0
BLOCK_RECORD
  5
19B
330
1
100
AcDbSymbolTableRecord
100
AcDbBlockTableRecord
  2
AI9-BLK9
340
0
102
{BLKREFS
331
1B6
102
}
  0
BLOCK_RECORD
  5
19E
330
1
100
AcDbSymbolTableRecord
100
AcDbBlockTableRecord
  2
AI9-BLK10
340
0
102
{BLKREFS
331
1AE
102
}
  0
BLOCK_RECORD
  5
1A1
330
1
100
AcDbSymbolTableRecord
100
AcDbBlockTableRecord
  2
AI9-BLK11
340
0
102
{BLKREFS
331
1B5
102
}
  0
BLOCK_RECORD
  5
114
330
1
100
AcDbSymbolTableRecord
100
AcDbBlockTableRecord
  2
AI9-BLK12
340
0
102
{BLKREFS
331
115
102
}
  0
BLOCK_RECORD
  5
12E
330
1
100
AcDbSymbolTableRecord
100
AcDbBlockTableRecord
  2
AI9-BLK13
340
0
102
{BLKREFS
331
12F
102
}
  0
BLOCK_RECORD
  5
131
330
1
100
AcDbSymbolTableRecord
100
AcDbBlockTableRecord
  2
AI9-BLK14
340
0
102
{BLKREFS
331
132
102
}
  0
BLOCK_RECORD
  5
146
330
1
100
AcDbSymbolTableRecord
100
AcDbBlockTableRecord
  2
AI9-BLK15
340
0
102
{BLKREFS
331
147
102
}
  0
ENDTAB
  0
ENDSEC
  0
SECTION
  2
BLOCKS
  0
BLOCK
  5
20
330
1F
100
AcDbEntity
  8
0
100
AcDbBlockBegin
  2
*Model_Space
 70
     0
 10
0.0
 20
0.0
 30
0.0
  3
*Model_Space
  1

  0
ENDBLK
  5
21
330
1F
100
AcDbEntity
  8
0
100
AcDbBlockEnd
  0
BLOCK
  5
75
330
73
100
AcDbEntity
 67
     1
  8
0
100
AcDbBlockBegin
  2
*Paper_Space
 70
     0
 10
0.0
 20
0.0
 30
0.0
  3
*Paper_Space
  1

  0
ENDBLK
  5
76
330
73
100
AcDbEntity
 67
     1
  8
0
100
AcDbBlockEnd
  0
BLOCK
  5
20A
330
36
100
AcDbEntity
  8
EBENE_1
100
AcDbBlockBegin
  2
AI9-BLK1
 70
     0
 10
0.0
 20
0.0
 30
0.0
  3
AI9-BLK1
  1

  0
INSERT
  5
3A
330
36
100
AcDbEntity
  8
EBENE_1
 62
     7
100
AcDbBlockReference
  2
AI9-BLK2
 10
0.0
 20
0.0
 30
0.0
  0
ENDBLK
  5
20B
330
36
100
AcDbEntity
  8
EBENE_1
100
AcDbBlockEnd
  0
BLOCK
  5
20C
330
39
100
AcDbEntity
  8
EBENE_1
100
AcDbBlockBegin
  2
AI9-BLK2
 70
     0
 10
0.0
 20
0.0
 30
0.0
  3
AI9-BLK2
  1

  0
LWPOLYLINE
  5
45
330
39
100
AcDbEntity
  8
EBENE_1
 62
     7
100
AcDbPolyline
 90
        4
 70
     0
 43
0.0
 10
4.354256184895833
 20
0.006201171875
 10
2.885956488715277
 20
-0.2728515625
 10
2.885956488715277
 20
0.2632052951388889
 10
4.354256184895833
 20
0.006201171875
  0
HATCH
  5
44
330
39
100
AcDbEntity
  8
EBENE_1
 62
     7
100
AcDbHatch
 10
0.0
 20
0.0
 30
0.0
210
0.0
220
0.0
230
1.0
  2
SOLID
 70
     1
 71
     0
 91
        1
 92
        3
 72
     0
 73
     1
 93
        3
 10
4.354256184895833
 20
0.006201171875
 10
2.885956488715277
 20
-0.2728515625
 10
2.885956488715277
 20
0.2632052951388889
 97
        0
 75
     0
 76
     1
 98
        1
 10
0.0
 20
0.0
  0
LWPOLYLINE
  5
3D
330
39
100
AcDbEntity
  8
EBENE_1
 62
     7
100
AcDbPolyline
 90
        5
 70
     0
 43
0.0
 10
4.275018988715277
 20
0.0082682291666667
 10
-4.354256184895833
 20
-0.0068901909722222
 10
-2.885267469618055
 20
0.2728515625
 10
-2.885267469618055
 20
-0.2632052951388889
 10
-4.354256184895833
 20
-0.0068901909722222
  0
HATCH
  5
3C
330
39
100
AcDbEntity
  8
EBENE_1
 62
     7
100
AcDbHatch
 10
0.0
 20
0.0
 30
0.0
210
0.0
220
0.0
230
1.0
  2
SOLID
 70
     1
 71
     0
 91
        1
 92
        3
 72
     0
 73
     1
 93
        5
 10
4.275018988715277
 20
0.0082682291666667
 10
-4.354256184895833
 20
-0.0068901909722222
 10
-2.885267469618055
 20
0.2728515625
 10
-2.885267469618055
 20
-0.2632052951388889
 10
-4.354256184895833
 20
-0.0068901909722222
 97
        0
 75
     0
 76
     1
 98
        1
 10
0.0
 20
0.0
  0
ENDBLK
  5
20D
330
39
100
AcDbEntity
  8
EBENE_1
100
AcDbBlockEnd
  0
BLOCK
  5
20E
330
4D
100
AcDbEntity
  8
EBENE_1
100
AcDbBlockBegin
  2
AI9-BLK3
 70
     0
 10
0.0
 20
0.0
 30
0.0
  3
AI9-BLK3
  1

  0
LINE
  5
64
330
4D
100
AcDbEntity
  8
EBENE_1
 62
     7
100
AcDbLine
 10
-6.985792371961805
 20
-12.32681003146701
 30
0.0
 11
7.036779785156249
 21
-12.32612101236979
 31
0.0
  0
LINE
  5
63
330
4D
100
AcDbEntity
  8
EBENE_1
 62
     7
100
AcDbLine
 10
-7.073986816406249
 20
12.32698228624132
 30
0.0
 11
7.073986816406249
 21
12.29666544596354
 31
0.0
  0
INSERT
  5
51
330
4D
100
AcDbEntity
  8
EBENE_1
 62
     7
100
AcDbBlockReference
  2
AI9-BLK4
 10
5.438944498697916
 20
-0.0296278211805556
 30
0.0
  0
ENDBLK
  5
20F
330
4D
100
AcDbEntity
  8
EBENE_1
100
AcDbBlockEnd
  0
BLOCK
  5
210
330
50
100
AcDbEntity
  8
EBENE_1
100
AcDbBlockBegin
  2
AI9-BLK4
 70
     0
 10
0.0
 20
0.0
 30
0.0
  3
AI9-BLK4
  1

  0
LWPOLYLINE
  5
5C
330
50
100
AcDbEntity
  8
EBENE_1
 62
     7
100
AcDbPolyline
 90
        4
 70
     0
 43
0.0
 10
0.0440972222222222
 20
12.28012898763021
 10
-0.2728515625
 20
10.74981757269965
 10
0.2632052951388889
 20
10.74981757269965
 10
0.0440972222222222
 20
12.28012898763021
  0
HATCH
  5
5B
330
50
100
AcDbEntity
  8
EBENE_1
 62
     7
100
AcDbHatch
 10
0.0
 20
0.0
 30
0.0
210
0.0
220
0.0
230
1.0
  2
SOLID
 70
     1
 71
     0
 91
        1
 92
        3
 72
     0
 73
     1
 93
        3
 10
0.0440972222222222
 20
12.28012898763021
 10
-0.2728515625
 20
10.74981757269965
 10
0.2632052951388889
 20
10.74981757269965
 97
        0
 75
     0
 76
     1
 98
        1
 10
0.0
 20
0.0
  0
LWPOLYLINE
  5
54
330
50
100
AcDbEntity
  8
EBENE_1
 62
     7
100
AcDbPolyline
 90
        5
 70
     0
 43
0.0
 10
0.0454752604166667
 20
12.20089179144965
 10
-0.0068901909722222
 20
-12.2799567328559
 10
0.2728515625
 20
-10.84851955837673
 10
-0.2632052951388889
 20
-10.84851955837673
 10
-0.0068901909722222
 20
-12.2799567328559
  0
HATCH
  5
53
330
50
100
AcDbEntity
  8
EBENE_1
 62
     7
100
AcDbHatch
 10
0.0
 20
0.0
 30
0.0
210
0.0
220
0.0
230
1.0
  2
SOLID
 70
     1
 71
     0
 91
        1
 92
        3
 72
     0
 73
     1
 93
        5
 10
0.0454752604166667
 20
12.20089179144965
 10
-0.0068901909722222
 20
-12.2799567328559
 10
0.2728515625
 20
-10.84851955837673
 10
-0.2632052951388889
 20
-10.84851955837673
 10
-0.0068901909722222
 20
-12.2799567328559
 97
        0
 75
     0
 76
     1
 98
        1
 10
0.0
 20
0.0
  0
ENDBLK
  5
211
330
50
100
AcDbEntity
  8
EBENE_1
100
AcDbBlockEnd
  0
BLOCK
  5
212
330
192
100
AcDbEntity
  8
EBENE_1
100
AcDbBlockBegin
  2
AI9-BLK5
 70
     0
 10
0.0
 20
0.0
 30
0.0
  3
AI9-BLK5
  1

  0
INSERT
  5
7A
330
192
100
AcDbEntity
  8
EBENE_1
 62
     7
100
AcDbBlockReference
  2
AI9-BLK6
 10
0.0
 20
0.0
 30
0.0
  0
ENDBLK
  5
213
330
192
100
AcDbEntity
  8
EBENE_1
100
AcDbBlockEnd
  0
BLOCK
  5
214
330
79
100
AcDbEntity
  8
EBENE_1
100
AcDbBlockBegin
  2
AI9-BLK6
 70
     0
 10
0.0
 20
0.0
 30
0.0
  3
AI9-BLK6
  1

  0
LWPOLYLINE
  5
7E
330
79
100
AcDbEntity
  8
EBENE_1
 62
     7
100
AcDbPolyline
 90
        4
 70
     0
 43
0.0
 10
-3.762733289930555
 20
6.71466335720486
 10
-2.8029296875
 20
5.569169108072916
 10
-3.270773654513889
 20
5.307686360677083
 10
-3.762733289930555
 20
6.71466335720486
  0
HATCH
  5
7D
330
79
100
AcDbEntity
  8
EBENE_1
 62
     7
100
AcDbHatch
 10
0.0
 20
0.0
 30
0.0
210
0.0
220
0.0
230
1.0
  2
SOLID
 70
     1
 71
     0
 91
        1
 92
        3
 72
     0
 73
     1
 93
        3
 10
-3.762733289930555
 20
6.71466335720486
 10
-2.8029296875
 20
5.569169108072916
 10
-3.270773654513889
 20
5.307686360677083
 97
        0
 75
     0
 76
     1
 98
        1
 10
0.0
 20
0.0
  0
LINE
  5
7C
330
79
100
AcDbEntity
  8
EBENE_1
 62
     7
100
AcDbLine
 10
-3.725526258680555
 20
6.644383409288194
 30
0.0
 11
3.762733289930555
 21
-6.71466335720486
 31
0.0
  0
ENDBLK
  5
215
330
79
100
AcDbEntity
  8
EBENE_1
100
AcDbBlockEnd
  0
BLOCK
  5
216
330
86
100
AcDbEntity
  8
EBENE_1
100
AcDbBlockBegin
  2
AI9-BLK7
 70
     0
 10
0.0
 20
0.0
 30
0.0
  3
AI9-BLK7
  1

  0
INSERT
  5
8A
330
86
100
AcDbEntity
  8
EBENE_1
 62
     7
100
AcDbBlockReference
  2
AI9-BLK8
 10
0.0
 20
0.0
 30
0.0
  0
ENDBLK
  5
217
330
86
100
AcDbEntity
  8
EBENE_1
100
AcDbBlockEnd
  0
BLOCK
  5
218
330
89
100
AcDbEntity
  8
EBENE_1
100
AcDbBlockBegin
  2
AI9-BLK8
 70
     0
 10
0.0
 20
0.0
 30
0.0
  3
AI9-BLK8
  1

  0
LWPOLYLINE
  5
95
330
89
100
AcDbEntity
  8
EBENE_1
 62
     7
100
AcDbPolyline
 90
        4
 70
     0
 43
0.0
 10
-0.0065456814236111
 20
13.45266723632812
 10
0.2728515625
 20
11.98436754014757
 10
-0.2632052951388889
 20
11.98436754014757
 10
-0.0065456814236111
 20
13.45266723632812
  0
HATCH
  5
94
330
89
100
AcDbEntity
  8
EBENE_1
 62
     7
100
AcDbHatch
 10
0.0
 20
0.0
 30
0.0
210
0.0
220
0.0
230
1.0
  2
SOLID
 70
     1
 71
     0
 91
        1
 92
        3
 72
     0
 73
     1
 93
        3
 10
-0.0065456814236111
 20
13.45266723632812
 10
0.2728515625
 20
11.98436754014757
 10
-0.2632052951388889
 20
11.98436754014757
 97
        0
 75
     0
 76
     1
 98
        1
 10
0.0
 20
0.0
  0
LWPOLYLINE
  5
8D
330
89
100
AcDbEntity
  8
EBENE_1
 62
     7
100
AcDbPolyline
 90
        5
 70
     0
 43
0.0
 10
-0.0082682291666667
 20
13.37308553059896
 10
0.0068901909722222
 20
-13.45249498155382
 10
-0.2728515625
 20
-11.98385077582465
 10
0.2632052951388889
 20
-11.98385077582465
 10
0.0068901909722222
 20
-13.45249498155382
  0
HATCH
  5
8C
330
89
100
AcDbEntity
  8
EBENE_1
 62
     7
100
AcDbHatch
 10
0.0
 20
0.0
 30
0.0
210
0.0
220
0.0
230
1.0
  2
SOLID
 70
     1
 71
     0
 91
        1
 92
        3
 72
     0
 73
     1
 93
        5
 10
-0.0082682291666667
 20
13.37308553059896
 10
0.0068901909722222
 20
-13.45249498155382
 10
-0.2728515625
 20
-11.98385077582465
 10
0.2632052951388889
 20
-11.98385077582465
 10
0.0068901909722222
 20
-13.45249498155382
 97
        0
 75
     0
 76
     1
 98
        1
 10
0.0
 20
0.0
  0
ENDBLK
  5
219
330
89
100
AcDbEntity
  8
EBENE_1
100
AcDbBlockEnd
  0
BLOCK
  5
21A
330
19B
100
AcDbEntity
  8
EBENE_1
100
AcDbBlockBegin
  2
AI9-BLK9
 70
     0
 10
0.0
 20
0.0
 30
0.0
  3
AI9-BLK9
  1

  0
LINE
  5
1AC
330
19B
100
AcDbEntity
  8
EBENE_1
 62
     7
100
AcDbLine
 10
6.597530110677083
 20
-7.487828911675346
 30
0.0
 11
-6.597530110677083
 21
-7.517801242404513
 31
0.0
  0
LINE
  5
1AD
330
19B
100
AcDbEntity
  8
EBENE_1
 62
     7
100
AcDbLine
 10
6.597530110677083
 20
7.517973497178819
 30
0.0
 11
-6.597530110677083
 21
7.488345675998263
 31
0.0
  0
INSERT
  5
1AE
330
19B
100
AcDbEntity
  8
EBENE_1
 62
     7
100
AcDbBlockReference
  2
AI9-BLK10
 10
-4.999694824218749
 20
-0.0142971462673611
 30
0.0
  0
ENDBLK
  5
21B
330
19B
100
AcDbEntity
  8
EBENE_1
100
AcDbBlockEnd
  0
BLOCK
  5
21C
330
19E
100
AcDbEntity
  8
EBENE_1
100
AcDbBlockBegin
  2
AI9-BLK10
 70
     0
 10
0.0
 20
0.0
 30
0.0
  3
AI9-BLK10
  1

  0
LWPOLYLINE
  5
1AF
330
19E
100
AcDbEntity
  8
EBENE_1
 62
     7
100
AcDbPolyline
 90
        4
 70
     0
 43
0.0
 10
-0.0065456814236111
 20
7.456134033203124
 10
0.2728515625
 20
5.987834337022569
 10
-0.2632052951388889
 20
5.987834337022569
 10
-0.0065456814236111
 20
7.456134033203124
  0
HATCH
  5
1B0
330
19E
100
AcDbEntity
  8
EBENE_1
 62
     7
100
AcDbHatch
 10
0.0
 20
0.0
 30
0.0
210
0.0
220
0.0
230
1.0
  2
SOLID
 70
     1
 71
     0
 91
        1
 92
        3
 72
     0
 73
     1
 93
        3
 10
-0.0065456814236111
 20
7.456134033203124
 10
0.2728515625
 20
5.987834337022569
 10
-0.2632052951388889
 20
5.987834337022569
 97
        0
 75
     0
 76
     1
 98
        1
 10
0.0
 20
0.0
  0
LWPOLYLINE
  5
1B1
330
19E
100
AcDbEntity
  8
EBENE_1
 62
     7
100
AcDbPolyline
 90
        5
 70
     0
 43
0.0
 10
-0.0082682291666667
 20
7.376552327473958
 10
0.0068901909722222
 20
-7.455961778428819
 10
-0.2728515625
 20
-5.987317572699652
 10
0.2632052951388889
 20
-5.987317572699652
 10
0.0068901909722222
 20
-7.455961778428819
  0
HATCH
  5
1B2
330
19E
100
AcDbEntity
  8
EBENE_1
 62
     7
100
AcDbHatch
 10
0.0
 20
0.0
 30
0.0
210
0.0
220
0.0
230
1.0
  2
SOLID
 70
     1
 71
     0
 91
        1
 92
        3
 72
     0
 73
     1
 93
        5
 10
-0.0082682291666667
 20
7.376552327473958
 10
0.0068901909722222
 20
-7.455961778428819
 10
-0.2728515625
 20
-5.987317572699652
 10
0.2632052951388889
 20
-5.987317572699652
 10
0.0068901909722222
 20
-7.455961778428819
 97
        0
 75
     0
 76
     1
 98
        1
 10
0.0
 20
0.0
  0
ENDBLK
  5
21D
330
19E
100
AcDbEntity
  8
EBENE_1
100
AcDbBlockEnd
  0
BLOCK
  5
21E
330
1A1
100
AcDbEntity
  8
EBENE_1
100
AcDbBlockBegin
  2
AI9-BLK11
 70
     0
 10
0.0
 20
0.0
 30
0.0
  3
AI9-BLK11
  1

  0
LINE
  5
D7
330
1A1
100
AcDbEntity
  8
EBENE_1
  6
AI9-LType1
 62
     7
100
AcDbLine
 10
0.2921440972222222
 20
6.010744222005208
 30
0.0
 11
0.2921440972222222
 21
-6.010571967230902
 31
0.0
  0
LINE
  5
D6
330
1A1
100
AcDbEntity
  8
EBENE_1
  6
AI9-LType1
 62
     7
100
AcDbLine
 10
-6.193592664930555
 20
-0.1545986599392361
 30
0.0
 11
6.193592664930555
 21
-0.1545986599392361
 31
0.0
  0
LINE
  5
D5
330
1A1
100
AcDbEntity
  8
EBENE_1
  6
AI9-LType1
 62
     7
100
AcDbLine
 10
-3.18740234375
 20
2.103316921657986
 30
0.0
 11
3.632508680555555
 21
2.103316921657986
 31
0.0
  0
LINE
  5
D4
330
1A1
100
AcDbEntity
  8
EBENE_1
  6
AI9-LType1
 62
     7
100
AcDbLine
 10
-1.557872178819444
 20
3.720444742838541
 30
0.0
 11
-1.557872178819444
 21
0.1478807237413194
 31
0.0
  0
LINE
  5
D3
330
1A1
100
AcDbEntity
  8
EBENE_1
  6
AI9-LType1
 62
     7
100
AcDbLine
 10
2.171099175347222
 20
3.720444742838541
 30
0.0
 11
2.171099175347222
 21
0.1478807237413194
 31
0.0
  0
CIRCLE
  5
D2
330
1A1
100
AcDbEntity
  8
EBENE_1
 62
     7
100
AcDbCircle
 10
-1.558216688368055
 20
2.109173583984375
 30
0.0
 40
1.421790907118055
  0
CIRCLE
  5
D1
330
1A1
100
AcDbEntity
  8
EBENE_1
 62
     7
100
AcDbCircle
 10
2.168343098958333
 20
2.109173583984375
 30
0.0
 40
1.155485026041666
  0
LINE
  5
D0
330
1A1
100
AcDbEntity
  8
EBENE_1
  6
AI9-LType1
 62
     7
100
AcDbLine
 10
-3.059244791666667
 20
-2.385642496744791
 30
0.0
 11
-0.080615234375
 21
-2.385642496744791
 31
0.0
  0
LINE
  5
CF
330
1A1
100
AcDbEntity
  8
EBENE_1
  6
AI9-LType1
 62
     7
100
AcDbLine
 10
-1.557872178819444
 20
-0.8725565592447916
 30
0.0
 11
-1.557872178819444
 21
-3.980032687717014
 31
0.0
  0
CIRCLE
  5
CE
330
1A1
100
AcDbEntity
  8
EBENE_1
 62
     7
100
AcDbCircle
 10
-1.561317274305555
 20
-2.380130343967014
 30
0.0
 40
1.156174045138889
  0
CIRCLE
  5
CD
330
1A1
100
AcDbEntity
  8
EBENE_1
 62
     7
100
AcDbCircle
 10
0.2952446831597222
 20
-0.1552876790364583
 30
0.0
 40
0.8519721137152777
  0
CIRCLE
  5
CC
330
1A1
100
AcDbEntity
  8
EBENE_1
 62
     7
100
AcDbCircle
 10
3.972195095486111
 20
-0.1552876790364583
 30
0.0
 40
0.7909939236111111
  0
CIRCLE
  5
CB
330
1A1
100
AcDbEntity
  8
EBENE_1
 62
     7
100
AcDbCircle
 10
3.679361979166667
 20
0.1392679850260417
 30
0.0
 40
0.2349555121527778
  0
CIRCLE
  5
CA
330
1A1
100
AcDbEntity
  8
EBENE_1
 62
     7
100
AcDbCircle
 10
4.263650173611111
 20
0.1385789659288194
 30
0.0
 40
0.2349555121527778
  0
CIRCLE
  5
C9
330
1A1
100
AcDbEntity
  8
EBENE_1
 62
     7
100
AcDbCircle
 10
3.676950412326389
 20
-0.4484653049045139
 30
0.0
 40
0.2353000217013889
  0
CIRCLE
  5
C8
330
1A1
100
AcDbEntity
  8
EBENE_1
 62
     7
100
AcDbCircle
 10
3.973228624131944
 20
-0.1556321885850694
 30
0.0
 40
0.1512396918402778
  0
HATCH
  5
C7
330
1A1
100
AcDbEntity
  8
EBENE_1
 62
     7
100
AcDbHatch
 10
0.0
 20
0.0
 30
0.0
210
0.0
220
0.0
230
1.0
  2
SOLID
 70
     1
 71
     0
 91
        1
 92
        1
 93
        1
 72
     4
 94
        3
 73
     0
 74
     0
 95
       17
 96
       13
 40
0.0
 40
0.0
 40
0.0
 40
0.0
 40
1.0
 40
1.0
 40
1.0
 40
2.0
 40
2.0
 40
2.0
 40
3.0
 40
3.0
 40
3.0
 40
4.0
 40
4.0
 40
4.0
 40
4.0
 10
4.054188368055555
 20
-0.1556321885850694
 10
4.054188368055555
 20
-0.2011074490017361
 10
4.018359374999999
 20
-0.2369364420572916
 10
3.973573133680555
 20
-0.2369364420572916
 10
3.928097873263888
 20
-0.2369364420572916
 10
3.892268880208333
 20
-0.2011074490017361
 10
3.892268880208333
 20
-0.1556321885850694
 10
3.892268880208333
 20
-0.1111904568142361
 10
3.928097873263888
 20
-0.0750169542100694
 10
3.973573133680555
 20
-0.0750169542100694
 10
4.018359374999999
 20
-0.0750169542100694
 10
4.054188368055555
 20
-0.1111904568142361
 10
4.054188368055555
 20
-0.1556321885850694
 97
        0
 75
     0
 76
     1
 98
        1
 10
0.0
 20
0.0
  0
HATCH
  5
C6
330
1A1
100
AcDbEntity
  8
EBENE_1
 62
     7
100
AcDbHatch
 10
0.0
 20
0.0
 30
0.0
210
0.0
220
0.0
230
1.0
  2
SOLID
 70
     1
 71
     0
 91
        1
 92
        1
 93
        1
 72
     4
 94
        3
 73
     0
 74
     0
 95
       17
 96
       13
 40
0.0
 40
0.0
 40
0.0
 40
0.0
 40
1.0
 40
1.0
 40
1.0
 40
2.0
 40
2.0
 40
2.0
 40
3.0
 40
3.0
 40
3.0
 40
4.0
 40
4.0
 40
4.0
 40
4.0
 10
3.735172526041666
 20
0.242620849609375
 10
3.735172526041666
 20
0.2033467610677083
 10
3.703477647569444
 20
0.1719963921440972
 10
3.664203559027778
 20
0.1719963921440972
 10
3.624929470486111
 20
0.1719963921440972
 10
3.593234592013888
 20
0.2033467610677083
 10
3.593234592013888
 20
0.242620849609375
 10
3.593234592013888
 20
0.2818949381510417
 10
3.624929470486111
 20
0.3135898166232639
 10
3.664203559027778
 20
0.3135898166232639
 10
3.703477647569444
 20
0.3135898166232639
 10
3.735172526041666
 20
0.2818949381510417
 10
3.735172526041666
 20
0.242620849609375
 97
        0
 75
     0
 76
     1
 98
        1
 10
0.0
 20
0.0
  0
HATCH
  5
C5
330
1A1
100
AcDbEntity
  8
EBENE_1
 62
     7
100
AcDbHatch
 10
0.0
 20
0.0
 30
0.0
210
0.0
220
0.0
230
1.0
  2
SOLID
 70
     1
 71
     0
 91
        1
 92
        1
 93
        1
 72
     4
 94
        3
 73
     0
 74
     0
 95
       17
 96
       13
 40
0.0
 40
0.0
 40
0.0
 40
0.0
 40
1.0
 40
1.0
 40
1.0
 40
2.0
 40
2.0
 40
2.0
 40
3.0
 40
3.0
 40
3.0
 40
4.0
 40
4.0
 40
4.0
 40
4.0
 10
3.561539713541666
 20
0.134100341796875
 10
3.595990668402778
 20
0.1540818956163194
 10
3.638709852430555
 20
0.1423685709635417
 10
3.65869140625
 20
0.1086066351996528
 10
3.677983940972222
 20
0.0745001898871528
 10
3.666959635416666
 20
0.0314364963107639
 10
3.633197699652778
 20
0.0114549424913194
 10
3.598746744791666
 20
-0.0078375922309028
 10
3.556027560763888
 20
0.0035312228732639
 10
3.536046006944444
 20
0.0372931586371528
 10
3.516753472222222
 20
0.0713996039496528
 10
3.527777777777778
 20
0.1151523166232639
 10
3.561539713541666
 20
0.134100341796875
 97
        0
 75
     0
 76
     1
 98
        1
 10
0.0
 20
0.0
  0
HATCH
  5
C4
330
1A1
100
AcDbEntity
  8
EBENE_1
 62
     7
100
AcDbHatch
 10
0.0
 20
0.0
 30
0.0
210
0.0
220
0.0
230
1.0
  2
SOLID
 70
     1
 71
     0
 91
        1
 92
        1
 93
        1
 72
     4
 94
        3
 73
     0
 74
     0
 95
       17
 96
       13
 40
0.0
 40
0.0
 40
0.0
 40
0.0
 40
1.0
 40
1.0
 40
1.0
 40
2.0
 40
2.0
 40
2.0
 40
3.0
 40
3.0
 40
3.0
 40
4.0
 40
4.0
 40
4.0
 40
4.0
 10
3.742751736111111
 20
0.041082763671875
 10
3.708989800347222
 20
0.0607198079427083
 10
3.697276475694444
 20
0.1041280110677083
 10
3.717258029513888
 20
0.1382344563802083
 10
3.736550564236111
 20
0.1719963921440972
 10
3.779958767361111
 20
0.183709716796875
 10
3.813720703125
 20
0.1644171820746528
 10
3.847482638888889
 20
0.1444356282552083
 10
3.859195963541666
 20
0.1013719346788194
 10
3.839903428819444
 20
0.0672654893663194
 10
3.819921874999999
 20
0.0331590440538194
 10
3.776513671875
 20
0.0214457194010417
 10
3.742751736111111
 20
0.041082763671875
 97
        0
 75
     0
 76
     1
 98
        1
 10
0.0
 20
0.0
  0
HATCH
  5
C3
330
1A1
100
AcDbEntity
  8
EBENE_1
 62
     7
100
AcDbHatch
 10
0.0
 20
0.0
 30
0.0
210
0.0
220
0.0
230
1.0
  2
SOLID
 70
     1
 71
     0
 91
        1
 92
        1
 93
        1
 72
     4
 94
        3
 73
     0
 74
     0
 95
       17
 96
       13
 40
0.0
 40
0.0
 40
0.0
 40
0.0
 40
1.0
 40
1.0
 40
1.0
 40
2.0
 40
2.0
 40
2.0
 40
3.0
 40
3.0
 40
3.0
 40
4.0
 40
4.0
 40
4.0
 40
4.0
 10
3.73310546875
 20
-0.3420118543836805
 10
3.73310546875
 20
-0.3812859429253472
 10
3.701410590277777
 20
-0.4129808213975694
 10
3.662136501736111
 20
-0.4129808213975694
 10
3.622862413194444
 20
-0.4129808213975694
 10
3.591167534722222
 20
-0.3812859429253472
 10
3.591167534722222
 20
-0.3420118543836805
 10
3.591167534722222
 20
-0.303082275390625
 10
3.622862413194444
 20
-0.2710428873697917
 10
3.662136501736111
 20
-0.2710428873697917
 10
3.701410590277777
 20
-0.2710428873697917
 10
3.73310546875
 20
-0.303082275390625
 10
3.73310546875
 20
-0.3420118543836805
 97
        0
 75
     0
 76
     1
 98
        1
 10
0.0
 20
0.0
  0
HATCH
  5
C2
330
1A1
100
AcDbEntity
  8
EBENE_1
 62
     7
100
AcDbHatch
 10
0.0
 20
0.0
 30
0.0
210
0.0
220
0.0
230
1.0
  2
SOLID
 70
     1
 71
     0
 91
        1
 92
        1
 93
        1
 72
     4
 94
        3
 73
     0
 74
     0
 95
       17
 96
       13
 40
0.0
 40
0.0
 40
0.0
 40
0.0
 40
1.0
 40
1.0
 40
1.0
 40
2.0
 40
2.0
 40
2.0
 40
3.0
 40
3.0
 40
3.0
 40
4.0
 40
4.0
 40
4.0
 40
4.0
 10
3.560161675347222
 20
-0.4501878526475694
 10
3.593234592013888
 20
-0.4305508083767361
 10
3.637331814236111
 20
-0.4426086425781249
 10
3.656624348958333
 20
-0.4763705783420139
 10
3.675916883680555
 20
-0.5101325141059028
 10
3.664892578124999
 20
-0.5535407172309027
 10
3.630441623263889
 20
-0.573177761501736
 10
3.5966796875
 20
-0.5924702962239583
 10
3.553271484375
 20
-0.5814459906684027
 10
3.533289930555555
 20
-0.5469950358072916
 10
3.513997395833333
 20
-0.5135776095920138
 10
3.525710720486111
 20
-0.4694803873697916
 10
3.560161675347222
 20
-0.4501878526475694
 97
        0
 75
     0
 76
     1
 98
        1
 10
0.0
 20
0.0
  0
HATCH
  5
C1
330
1A1
100
AcDbEntity
  8
EBENE_1
 62
     7
100
AcDbHatch
 10
0.0
 20
0.0
 30
0.0
210
0.0
220
0.0
230
1.0
  2
SOLID
 70
     1
 71
     0
 91
        1
 92
        1
 93
        1
 72
     4
 94
        3
 73
     0
 74
     0
 95
       17
 96
       13
 40
0.0
 40
0.0
 40
0.0
 40
0.0
 40
1.0
 40
1.0
 40
1.0
 40
2.0
 40
2.0
 40
2.0
 40
3.0
 40
3.0
 40
3.0
 40
4.0
 40
4.0
 40
4.0
 40
4.0
 10
3.740684678819444
 20
-0.5432054307725694
 10
3.706922743055555
 20
-0.5235683865017361
 10
3.695209418402778
 20
-0.4808492024739583
 10
3.714501953125
 20
-0.4463982476128472
 10
3.734483506944444
 20
-0.4126363118489583
 10
3.777891710069444
 20
-0.4009229871961805
 10
3.811653645833333
 20
-0.4205600314670139
 10
3.845415581597222
 20
-0.4401970757378472
 10
3.85712890625
 20
-0.4836052788628472
 10
3.837836371527777
 20
-0.5177117241753472
 10
3.817854817708333
 20
-0.551473659939236
 10
3.774446614583333
 20
-0.5631869845920139
 10
3.740684678819444
 20
-0.5432054307725694
 97
        0
 75
     0
 76
     1
 98
        1
 10
0.0
 20
0.0
  0
HATCH
  5
C0
330
1A1
100
AcDbEntity
  8
EBENE_1
 62
     7
100
AcDbHatch
 10
0.0
 20
0.0
 30
0.0
210
0.0
220
0.0
230
1.0
  2
SOLID
 70
     1
 71
     0
 91
        1
 92
        1
 93
        1
 72
     4
 94
        3
 73
     0
 74
     0
 95
       17
 96
       13
 40
0.0
 40
0.0
 40
0.0
 40
0.0
 40
1.0
 40
1.0
 40
1.0
 40
2.0
 40
2.0
 40
2.0
 40
3.0
 40
3.0
 40
3.0
 40
4.0
 40
4.0
 40
4.0
 40
4.0
 10
4.320149739583333
 20
0.2450324164496528
 10
4.320149739583333
 20
0.2057583279079861
 10
4.288454861111111
 20
0.1740634494357639
 10
4.249180772569444
 20
0.1740634494357639
 10
4.209906684027778
 20
0.1740634494357639
 10
4.178211805555555
 20
0.2057583279079861
 10
4.178211805555555
 20
0.2450324164496528
 10
4.178211805555555
 20
0.2839619954427083
 10
4.209906684027778
 20
0.3156568739149305
 10
4.249180772569444
 20
0.3156568739149305
 10
4.288454861111111
 20
0.3156568739149305
 10
4.320149739583333
 20
0.2839619954427083
 10
4.320149739583333
 20
0.2450324164496528
 97
        0
 75
     0
 76
     1
 98
        1
 10
0.0
 20
0.0
  0
HATCH
  5
BF
330
1A1
100
AcDbEntity
  8
EBENE_1
 62
     7
100
AcDbHatch
 10
0.0
 20
0.0
 30
0.0
210
0.0
220
0.0
230
1.0
  2
SOLID
 70
     1
 71
     0
 91
        1
 92
        1
 93
        1
 72
     4
 94
        3
 73
     0
 74
     0
 95
       17
 96
       13
 40
0.0
 40
0.0
 40
0.0
 40
0.0
 40
1.0
 40
1.0
 40
1.0
 40
2.0
 40
2.0
 40
2.0
 40
3.0
 40
3.0
 40
3.0
 40
4.0
 40
4.0
 40
4.0
 40
4.0
 10
4.146516927083333
 20
0.1368564181857639
 10
4.180278862847222
 20
0.1564934624565972
 10
4.223687065972221
 20
0.1444356282552083
 10
4.242979600694444
 20
0.1106736924913194
 10
4.262961154513889
 20
0.0769117567274305
 10
4.251936848958333
 20
0.0331590440538194
 10
4.217485894097222
 20
0.0142110188802083
 10
4.183723958333333
 20
-0.005426025390625
 10
4.140315755208333
 20
0.0059427897135417
 10
4.120334201388888
 20
0.0397047254774305
 10
4.101041666666666
 20
0.0734666612413194
 10
4.112754991319444
 20
0.1168748643663194
 10
4.146516927083333
 20
0.1368564181857639
 97
        0
 75
     0
 76
     1
 98
        1
 10
0.0
 20
0.0
  0
HATCH
  5
BE
330
1A1
100
AcDbEntity
  8
EBENE_1
 62
     7
100
AcDbHatch
 10
0.0
 20
0.0
 30
0.0
210
0.0
220
0.0
230
1.0
  2
SOLID
 70
     1
 71
     0
 91
        1
 92
        1
 93
        1
 72
     4
 94
        3
 73
     0
 74
     0
 95
       17
 96
       13
 40
0.0
 40
0.0
 40
0.0
 40
0.0
 40
1.0
 40
1.0
 40
1.0
 40
2.0
 40
2.0
 40
2.0
 40
3.0
 40
3.0
 40
3.0
 40
4.0
 40
4.0
 40
4.0
 40
4.0
 10
4.327728949652777
 20
0.0434943305121528
 10
4.293967013888889
 20
0.0631313747829861
 10
4.282253689236111
 20
0.106195068359375
 10
4.301546223958333
 20
0.140301513671875
 10
4.321527777777777
 20
0.1740634494357639
 10
4.364935980902778
 20
0.1857767740885417
 10
4.398697916666666
 20
0.1661397298177083
 10
4.432459852430555
 20
0.146502685546875
 10
4.444173177083333
 20
0.1034389919704861
 10
4.424880642361111
 20
0.0693325466579861
 10
4.404899088541666
 20
0.0355706108940972
 10
4.361490885416666
 20
0.0238572862413194
 10
4.327728949652777
 20
0.0434943305121528
 97
        0
 75
     0
 76
     1
 98
        1
 10
0.0
 20
0.0
  0
CIRCLE
  5
BD
330
1A1
100
AcDbEntity
  8
EBENE_1
  6
AI9-LType1
 62
     7
100
AcDbCircle
 10
0.2952446831597222
 20
-0.1552876790364583
 30
0.0
 40
4.568541124131944
  0
CIRCLE
  5
BC
330
1A1
100
AcDbEntity
  8
EBENE_1
 62
     7
100
AcDbCircle
 10
-3.383772786458333
 20
-0.1552876790364583
 30
0.0
 40
0.2487358940972222
  0
CIRCLE
  5
BB
330
1A1
100
AcDbEntity
  8
EBENE_1
 62
     7
100
AcDbCircle
 10
0.2955891927083333
 20
-0.1552876790364583
 30
0.0
 40
0.5353678385416666
  0
LINE
  5
1B3
330
1A1
100
AcDbEntity
  8
EBENE_1
 62
     7
100
AcDbLine
 10
3.974951171874999
 20
0.782467312282986
 30
0.0
 11
3.974951171874999
 21
-1.24738294813368
 31
0.0
  0
LINE
  5
1B4
330
1A1
100
AcDbEntity
  8
EBENE_1
  6
AI9-LType1
 62
     7
100
AcDbLine
 10
-3.389973958333333
 20
0.2646694607204861
 30
0.0
 11
-3.389973958333333
 21
-0.6083177354600694
 31
0.0
  0
ENDBLK
  5
21F
330
1A1
100
AcDbEntity
  8
EBENE_1
100
AcDbBlockEnd
  0
BLOCK
  5
220
330
114
100
AcDbEntity
  8
EBENE_1
100
AcDbBlockBegin
  2
AI9-BLK12
 70
     0
 10
0.0
 20
0.0
 30
0.0
  3
AI9-BLK12
  1

  0
LWPOLYLINE
  5
120
330
114
100
AcDbEntity
  8
EBENE_1
 62
     7
100
AcDbPolyline
 90
        4
 70
     0
 43
0.0
 10
37.45550876193576
 20
0.006201171875
 10
35.9872090657552
 20
-0.2728515625
 10
35.9872090657552
 20
0.2632052951388889
 10
37.45550876193576
 20
0.006201171875
  0
HATCH
  5
11F
330
114
100
AcDbEntity
  8
EBENE_1
 62
     7
100
AcDbHatch
 10
0.0
 20
0.0
 30
0.0
210
0.0
220
0.0
230
1.0
  2
SOLID
 70
     1
 71
     0
 91
        1
 92
        3
 72
     0
 73
     1
 93
        3
 10
37.45550876193576
 20
0.006201171875
 10
35.9872090657552
 20
-0.2728515625
 10
35.9872090657552
 20
0.2632052951388889
 97
        0
 75
     0
 76
     1
 98
        1
 10
0.0
 20
0.0
  0
LWPOLYLINE
  5
118
330
114
100
AcDbEntity
  8
EBENE_1
 62
     7
100
AcDbPolyline
 90
        5
 70
     0
 43
0.0
 10
37.3762715657552
 20
0.0082682291666667
 10
-37.45568101671007
 20
-0.0068901909722222
 10
-35.98669230143229
 20
0.2728515625
 10
-35.98669230143229
 20
-0.2632052951388889
 10
-37.45568101671007
 20
-0.0068901909722222
  0
HATCH
  5
117
330
114
100
AcDbEntity
  8
EBENE_1
 62
     7
100
AcDbHatch
 10
0.0
 20
0.0
 30
0.0
210
0.0
220
0.0
230
1.0
  2
SOLID
 70
     1
 71
     0
 91
        1
 92
        3
 72
     0
 73
     1
 93
        5
 10
37.3762715657552
 20
0.0082682291666667
 10
-37.45568101671007
 20
-0.0068901909722222
 10
-35.98669230143229
 20
0.2728515625
 10
-35.98669230143229
 20
-0.2632052951388889
 10
-37.45568101671007
 20
-0.0068901909722222
 97
        0
 75
     0
 76
     1
 98
        1
 10
0.0
 20
0.0
  0
ENDBLK
  5
221
330
114
100
AcDbEntity
  8
EBENE_1
100
AcDbBlockEnd
  0
BLOCK
  5
222
330
12E
100
AcDbEntity
  8
EBENE_1
100
AcDbBlockBegin
  2
AI9-BLK13
 70
     0
 10
0.0
 20
0.0
 30
0.0
  3
AI9-BLK13
  1

  0
LINE
  5
144
330
12E
100
AcDbEntity
  8
EBENE_1
 62
     7
100
AcDbLine
 10
-26.05465426974826
 20
-10.8102789984809
 30
0.0
 11
-26.06085544162326
 21
10.81045125325521
 31
0.0
  0
INSERT
  5
132
330
12E
100
AcDbEntity
  8
EBENE_1
 62
     7
100
AcDbBlockReference
  2
AI9-BLK14
 10
0.0117133246527778
 20
9.212615966796875
 30
0.0
  0
ENDBLK
  5
223
330
12E
100
AcDbEntity
  8
EBENE_1
100
AcDbBlockEnd
  0
BLOCK
  5
224
330
131
100
AcDbEntity
  8
EBENE_1
100
AcDbBlockBegin
  2
AI9-BLK14
 70
     0
 10
0.0
 20
0.0
 30
0.0
  3
AI9-BLK14
  1

  0
LWPOLYLINE
  5
13D
330
131
100
AcDbEntity
  8
EBENE_1
 62
     7
100
AcDbPolyline
 90
        4
 70
     0
 43
0.0
 10
26.04896986219618
 20
0.006201171875
 10
24.58067016601562
 20
-0.2728515625
 10
24.58067016601562
 20
0.2632052951388889
 10
26.04896986219618
 20
0.006201171875
  0
HATCH
  5
13C
330
131
100
AcDbEntity
  8
EBENE_1
 62
     7
100
AcDbHatch
 10
0.0
 20
0.0
 30
0.0
210
0.0
220
0.0
230
1.0
  2
SOLID
 70
     1
 71
     0
 91
        1
 92
        3
 72
     0
 73
     1
 93
        3
 10
26.04896986219618
 20
0.006201171875
 10
24.58067016601562
 20
-0.2728515625
 10
24.58067016601562
 20
0.2632052951388889
 97
        0
 75
     0
 76
     1
 98
        1
 10
0.0
 20
0.0
  0
LWPOLYLINE
  5
135
330
131
100
AcDbEntity
  8
EBENE_1
 62
     7
100
AcDbPolyline
 90
        5
 70
     0
 43
0.0
 10
25.96973266601562
 20
0.0082682291666667
 10
-26.04914211697048
 20
-0.0068901909722222
 10
-24.58015340169271
 20
0.2728515625
 10
-24.58015340169271
 20
-0.2632052951388889
 10
-26.04914211697048
 20
-0.0068901909722222
  0
HATCH
  5
134
330
131
100
AcDbEntity
  8
EBENE_1
 62
     7
100
AcDbHatch
 10
0.0
 20
0.0
 30
0.0
210
0.0
220
0.0
230
1.0
  2
SOLID
 70
     1
 71
     0
 91
        1
 92
        3
 72
     0
 73
     1
 93
        5
 10
25.96973266601562
 20
0.0082682291666667
 10
-26.04914211697048
 20
-0.0068901909722222
 10
-24.58015340169271
 20
0.2728515625
 10
-24.58015340169271
 20
-0.2632052951388889
 10
-26.04914211697048
 20
-0.0068901909722222
 97
        0
 75
     0
 76
     1
 98
        1
 10
0.0
 20
0.0
  0
ENDBLK
  5
225
330
131
100
AcDbEntity
  8
EBENE_1
100
AcDbBlockEnd
  0
BLOCK
  5
226
330
146
100
AcDbEntity
  8
EBENE_1
100
AcDbBlockBegin
  2
AI9-BLK15
 70
     0
 10
0.0
 20
0.0
 30
0.0
  3
AI9-BLK15
  1

  0
HATCH
  5
158
330
146
100
AcDbEntity
  8
EBENE_1
 62
   254
100
AcDbHatch
 10
0.0
 20
0.0
 30
0.0
210
0.0
220
0.0
230
1.0
  2
SOLID
 70
     1
 71
     0
 91
        1
 92
        3
 72
     0
 73
     1
 93
        4
 10
22.97809787326389
 20
-5.436532931857639
 10
-22.97809787326389
 20
-5.436532931857639
 10
-22.97809787326389
 20
-4.027833387586806
 10
22.97809787326389
 20
-4.027833387586806
 97
        0
 75
     0
 76
     1
 98
        1
 10
0.0
 20
0.0
  0
HATCH
  5
157
330
146
100
AcDbEntity
  8
EBENE_1
 62
     7
100
AcDbHatch
 10
0.0
 20
0.0
 30
0.0
210
0.0
220
0.0
230
1.0
  2
SOLID
 70
     1
 71
     0
 91
        1
 92
        1
 93
        1
 72
     4
 94
        3
 73
     0
 74
     0
 95
       35
 96
       31
 40
0.0
 40
0.0
 40
0.0
 40
0.0
 40
1.0
 40
1.0
 40
1.0
 40
2.0
 40
2.0
 40
2.0
 40
3.0
 40
3.0
 40
3.0
 40
4.0
 40
4.0
 40
4.0
 40
5.0
 40
5.0
 40
5.0
 40
6.0
 40
6.0
 40
6.0
 40
7.0
 40
7.0
 40
7.0
 40
8.0
 40
8.0
 40
8.0
 40
9.0
 40
9.0
 40
9.0
 40
10.0
 40
10.0
 40
10.0
 40
10.0
 10
-22.94847005208333
 20
3.828017849392361
 10
-22.94847005208333
 20
3.828017849392361
 10
-22.96638454861111
 20
-0.3729315863715277
 10
-22.96638454861111
 20
-1.145321994357639
 10
-22.96638454861111
 20
-1.955608452690972
 10
-22.206396484375
 20
-3.016353352864583
 10
-20.40461154513889
 20
-3.015664333767361
 10
-18.64003363715278
 20
-3.01531982421875
 10
-18.16667751736111
 20
-1.943550618489583
 10
-18.14738498263889
 20
-1.348582628038194
 10
-18.13463812934028
 20
-0.9424058702256943
 10
-18.14738498263889
 20
3.830429416232639
 10
-18.14738498263889
 20
3.830429416232639
 10
-18.14738498263889
 20
3.830429416232639
 10
-18.71685926649305
 20
3.830429416232639
 10
-18.71685926649305
 20
3.830429416232639
 10
-18.71685926649305
 20
3.830429416232639
 10
-18.71272515190972
 20
-0.2912828233506944
 10
-18.71685926649305
 20
-1.023365614149305
 10
-18.72168240017361
 20
-1.811603461371528
 10
-19.3879638671875
 20
-2.324578179253472
 10
-20.18068033854167
 20
-2.324578179253472
 10
-20.9940673828125
 20
-2.324578179253472
 10
-21.76680230034722
 20
-1.836752658420139
 10
-21.76680230034722
 20
-1.023365614149305
 10
-21.76680230034722
 20
-0.0477145724826389
 10
-21.76886935763889
 20
3.830429416232639
 10
-21.76886935763889
 20
3.830429416232639
 10
-21.76886935763889
 20
3.830429416232639
 10
-22.94847005208333
 20
3.828017849392361
 10
-22.94847005208333
 20
3.828017849392361
 97
        0
 75
     0
 76
     1
 98
        1
 10
0.0
 20
0.0
  0
HATCH
  5
156
330
146
100
AcDbEntity
  8
EBENE_1
 62
     7
100
AcDbHatch
 10
0.0
 20
0.0
 30
0.0
210
0.0
220
0.0
230
1.0
  2
SOLID
 70
     1
 71
     0
 91
        1
 92
        3
 72
     0
 73
     1
 93
        6
 10
-17.70021158854167
 20
3.831462944878472
 10
-17.70021158854167
 20
-2.939872233072916
 10
-13.63396538628472
 20
-2.939872233072916
 10
-13.63396538628472
 20
-2.411050075954861
 10
-16.43965115017361
 20
-2.411050075954861
 10
-16.43965115017361
 20
3.831462944878472
 97
        0
 75
     0
 76
     1
 98
        1
 10
0.0
 20
0.0
  0
HATCH
  5
155
330
146
100
AcDbEntity
  8
EBENE_1
 62
     7
100
AcDbHatch
 10
0.0
 20
0.0
 30
0.0
210
0.0
220
0.0
230
1.0
  2
SOLID
 70
     1
 71
     0
 91
        1
 92
        3
 72
     0
 73
     1
 93
        8
 10
-14.68988715277778
 20
3.832496473524305
 10
-14.68988715277778
 20
3.325722927517361
 10
-13.24742567274305
 20
3.325722927517361
 10
-13.24742567274305
 20
-2.939872233072916
 10
-11.986865234375
 20
-2.939872233072916
 10
-11.986865234375
 20
3.324344889322916
 10
-10.566796875
 20
3.324344889322916
 10
-10.566796875
 20
3.832496473524305
 97
        0
 75
     0
 76
     1
 98
        1
 10
0.0
 20
0.0
  0
HATCH
  5
154
330
146
100
AcDbEntity
  8
EBENE_1
 62
     7
100
AcDbHatch
 10
0.0
 20
0.0
 30
0.0
210
0.0
220
0.0
230
1.0
  2
SOLID
 70
     1
 71
     0
 91
        1
 92
        3
 72
     0
 73
     1
 93
        8
 10
18.74545355902778
 20
3.832496473524305
 10
18.74545355902778
 20
3.325722927517361
 10
20.18825954861111
 20
3.325722927517361
 10
20.18825954861111
 20
-2.939872233072916
 10
21.44847547743055
 20
-2.939872233072916
 10
21.44847547743055
 20
3.324344889322916
 10
22.88783637152778
 20
3.324344889322916
 10
22.88783637152778
 20
3.832496473524305
 97
        0
 75
     0
 76
     1
 98
        1
 10
0.0
 20
0.0
  0
HATCH
  5
153
330
146
100
AcDbEntity
  8
EBENE_1
 62
     7
100
AcDbHatch
 10
0.0
 20
0.0
 30
0.0
210
0.0
220
0.0
230
1.0
  2
SOLID
 70
     1
 71
     0
 91
        1
 92
        1
 93
        1
 72
     4
 94
        3
 73
     0
 74
     0
 95
       41
 96
       37
 40
0.0
 40
0.0
 40
0.0
 40
0.0
 40
1.0
 40
1.0
 40
1.0
 40
2.0
 40
2.0
 40
2.0
 40
3.0
 40
3.0
 40
3.0
 40
4.0
 40
4.0
 40
4.0
 40
5.0
 40
5.0
 40
5.0
 40
6.0
 40
6.0
 40
6.0
 40
7.0
 40
7.0
 40
7.0
 40
8.0
 40
8.0
 40
8.0
 40
9.0
 40
9.0
 40
9.0
 40
10.0
 40
10.0
 40
10.0
 40
11.0
 40
11.0
 40
11.0
 40
12.0
 40
12.0
 40
12.0
 40
12.0
 10
-10.238134765625
 20
-2.939872233072916
 10
-10.238134765625
 20
-2.939872233072916
 10
-10.238134765625
 20
3.832496473524305
 10
-10.238134765625
 20
3.832496473524305
 10
-10.238134765625
 20
3.832496473524305
 10
-7.981597222222222
 20
3.83387451171875
 10
-7.249858940972222
 20
3.83387451171875
 10
-6.517431640624999
 20
3.83387451171875
 10
-5.277197265624999
 20
3.382911512586805
 10
-5.277197265624999
 20
2.041391330295139
 10
-5.277197265624999
 20
0.6995266384548611
 10
-6.293844943576389
 20
0.2520087348090277
 10
-7.107231987847221
 20
0.2320271809895833
 10
-7.107231987847221
 20
0.2320271809895833
 10
-5.239990234374999
 20
-2.933671061197916
 10
-5.239990234374999
 20
-2.933671061197916
 10
-5.239990234374999
 20
-2.933671061197916
 10
-6.622162543402777
 20
-2.933671061197916
 10
-6.622162543402777
 20
-2.933671061197916
 10
-6.622162543402777
 20
-2.933671061197916
 10
-8.550726996527777
 20
0.516592068142361
 10
-8.550726996527777
 20
0.516592068142361
 10
-8.12353515625
 20
0.5369181315104166
 10
-6.558083767361111
 20
0.4959214952256944
 10
-6.558083767361111
 20
2.061717393663194
 10
-6.558083767361111
 20
3.50521240234375
 10
-7.754220920138888
 20
3.486264377170138
 10
-8.184857855902777
 20
3.484886338975694
 10
-8.409478081597221
 20
3.484197319878472
 10
-8.957248263888888
 20
3.484886338975694
 10
-8.957248263888888
 20
3.484886338975694
 10
-8.957248263888888
 20
3.484886338975694
 10
-8.957248263888888
 20
-2.939872233072916
 10
-8.957248263888888
 20
-2.939872233072916
 10
-8.957248263888888
 20
-2.939872233072916
 10
-10.238134765625
 20
-2.939872233072916
 10
-10.238134765625
 20
-2.939872233072916
 97
        0
 75
     0
 76
     1
 98
        1
 10
0.0
 20
0.0
  0
HATCH
  5
152
330
146
100
AcDbEntity
  8
EBENE_1
 62
     7
100
AcDbHatch
 10
0.0
 20
0.0
 30
0.0
210
0.0
220
0.0
230
1.0
  2
SOLID
 70
     1
 71
     0
 91
        1
 92
        3
 72
     0
 73
     1
 93
        7
 10
-5.011924913194444
 20
-2.935393608940972
 10
-1.7394287109375
 20
5.436532931857639
 10
1.901692708333333
 20
-2.949173990885416
 10
0.3355523003472222
 20
-2.949173990885416
 10
-0.5587944878472222
 20
-0.8659247504340277
 10
-3.439583333333333
 20
-0.8659247504340277
 10
-4.254003906249999
 20
-2.936771647135417
 97
        0
 75
     0
 76
     1
 98
        1
 10
0.0
 20
0.0
  0
LWPOLYLINE
  5
14D
330
146
100
AcDbEntity
  8
EBENE_1
 62
     7
100
AcDbPolyline
 90
        3
 70
     1
 43
0.0
 10
-0.8350911458333332
 20
-0.2234144422743055
 10
-2.064990234375
 20
2.631191677517361
 10
-3.1843017578125
 20
-0.2151462131076389
  0
HATCH
  5
14C
330
146
100
AcDbEntity
  8
EBENE_1
 62
     7
100
AcDbHatch
 10
0.0
 20
0.0
 30
0.0
210
0.0
220
0.0
230
1.0
  2
SOLID
 70
     1
 71
     0
 91
        1
 92
        1
 93
        1
 72
     4
 94
        3
 73
     0
 74
     0
 95
       20
 96
       16
 40
0.0
 40
0.0
 40
0.0
 40
0.0
 40
1.0
 40
1.0
 40
1.0
 40
2.0
 40
2.0
 40
2.0
 40
3.0
 40
3.0
 40
3.0
 40
4.0
 40
4.0
 40
4.0
 40
5.0
 40
5.0
 40
5.0
 40
5.0
 10
2.225187174479166
 20
3.853167046440972
 10
2.225187174479166
 20
3.853167046440972
 10
2.225187174479166
 20
-2.938494194878472
 10
2.225187174479166
 20
-2.938494194878472
 10
2.225187174479166
 20
-2.938494194878472
 10
4.399386935763888
 20
-2.938494194878472
 10
5.132503255208333
 20
-2.938494194878472
 10
5.864241536458333
 20
-2.938494194878472
 10
8.182101779513888
 20
-2.472028266059028
 10
8.182101779513888
 20
0.4556138780381944
 10
8.182101779513888
 20
2.895430501302083
 10
6.309692382812499
 20
3.863157823350694
 10
4.848282877604166
 20
3.854200575086805
 10
4.319460720486111
 20
3.851099989149305
 10
2.225187174479166
 20
3.853167046440972
 10
2.225187174479166
 20
3.853167046440972
 97
        0
 75
     0
 76
     1
 98
        1
 10
0.0
 20
0.0
  0
SPLINE
  5
14B
330
146
100
AcDbEntity
  8
EBENE_1
 62
     7
100
AcDbSpline
210
0.0
220
0.0
230
1.0
 70
    11
 71
     3
 72
    20
 73
    16
 74
     0
 42
0.00000001
 43
0.00000001
 40
0.0
 40
0.0
 40
0.0
 40
0.0
 40
1.0
 40
1.0
 40
1.0
 40
2.0
 40
2.0
 40
2.0
 40
3.0
 40
3.0
 40
3.0
 40
4.0
 40
4.0
 40
4.0
 40
5.0
 40
5.0
 40
5.0
 40
5.0
 10
3.465421549479166
 20
3.405649142795139
 30
0.0
 10
3.465421549479166
 20
3.405649142795139
 30
0.0
 10
3.465421549479166
 20
-2.472028266059028
 30
0.0
 10
3.465421549479166
 20
-2.472028266059028
 30
0.0
 10
3.465421549479166
 20
-2.472028266059028
 30
0.0
 10
4.177178276909721
 20
-2.473061794704861
 30
0.0
 10
4.6043701171875
 20
-2.473061794704861
 30
0.0
 10
5.503540039062499
 20
-2.473061794704861
 30
0.0
 10
6.932221137152777
 20
-2.050693088107639
 30
0.0
 10
6.922230360243055
 20
0.5369181315104166
 30
0.0
 10
6.915684678819444
 20
2.122695583767361
 30
0.0
 10
6.031328667534722
 20
3.415639919704861
 30
0.0
 10
4.685329861111111
 20
3.407027180989583
 30
0.0
 10
4.420746527777777
 20
3.404960123697916
 30
0.0
 10
3.465421549479166
 20
3.405649142795139
 30
0.0
 10
3.465421549479166
 20
3.405649142795139
 30
0.0
  0
HATCH
  5
14A
330
146
100
AcDbEntity
  8
EBENE_1
 62
     7
100
AcDbHatch
 10
0.0
 20
0.0
 30
0.0
210
0.0
220
0.0
230
1.0
  2
SOLID
 70
     1
 71
     0
 91
        1
 92
        3
 72
     0
 73
     1
 93
       12
 10
8.528333875868055
 20
3.853167046440972
 10
8.528333875868055
 20
-2.941594780815972
 10
12.60215928819444
 20
-2.941594780815972
 10
12.60215928819444
 20
-2.398647732204861
 10
9.849527994791666
 20
-2.398647732204861
 10
9.849527994791666
 20
0.3133314344618055
 10
12.43197157118055
 20
0.3133314344618055
 10
12.43197157118055
 20
0.8418090820312499
 10
9.849527994791666
 20
0.8418090820312499
 10
9.849527994791666
 20
3.345015462239583
 10
12.594580078125
 20
3.345015462239583
 10
12.594580078125
 20
3.853167046440972
 97
        0
 75
     0
 76
     1
 98
        1
 10
0.0
 20
0.0
  0
HATCH
  5
149
330
146
100
AcDbEntity
  8
EBENE_1
 62
     7
100
AcDbHatch
 10
0.0
 20
0.0
 30
0.0
210
0.0
220
0.0
230
1.0
  2
SOLID
 70
     1
 71
     0
 91
        1
 92
        3
 72
     0
 73
     1
 93
       10
 10
13.04209798177083
 20
-2.94090576171875
 10
13.04209798177083
 20
3.836286078559028
 10
14.24133572048611
 20
3.836286078559028
 10
17.82010091145833
 20
-0.6630086263020832
 10
17.82010091145833
 20
3.834908040364583
 10
18.40921223958333
 20
3.834908040364583
 10
18.40921223958333
 20
-2.941594780815972
 10
17.79943033854167
 20
-2.941594780815972
 10
13.63155381944444
 20
2.285304090711805
 10
13.63155381944444
 20
-2.94090576171875
 97
        0
 75
     0
 76
     1
 98
        1
 10
0.0
 20
0.0
  0
ENDBLK
  5
227
330
146
100
AcDbEntity
  8
EBENE_1
100
AcDbBlockEnd
  0
ENDSEC
  0
SECTION
  2
ENTITIES
  0
MTEXT
  5
15E
330
1F
100
AcDbEntity
  8
EBENE_1
 62
     7
100
AcDbMText
 10
99.64490831163194
 20
180.9667891890914
 30
0.0
 40
3.674768518518519
 41
0.0
 71
     1
 72
     2
  1
\W1.02;\fHelvetica|b1|i0;Kinderbehandlungsplatz "Fridolin"
  7
STD
 73
     1
 44
1.0
  0
MTEXT
  5
15D
330
1F
100
AcDbEntity
  8
EBENE_1
 62
     7
100
AcDbMText
 10
99.64490831163194
 20
186.2584558557581
 30
0.0
 40
3.674768518518519
 41
0.0
 71
     1
 72
     2
  1
\W1.02;\fHelvetica|b1|i0;Planungsfolie (1:20) 
  7
STD
 73
     1
 44
1.0
  0
MTEXT
  5
15C
330
1F
100
AcDbEntity
  8
EBENE_1
 62
     7
100
AcDbMText
 10
246.9392768012152
 20
10.66158621651786
 30
0.0
 40
2.36235119047619
 41
0.0
 71
     1
 72
     2
  1
\fHelvetica|b0|i0;Best.-Nr. 36061 
  7
STD
 73
     1
 44
1.0
  0
MTEXT
  5
15B
330
1F
100
AcDbEntity
  8
EBENE_1
 62
     7
100
AcDbMText
 10
32.58061252170138
 20
15.78340967571924
 30
0.0
 40
2.36235119047619
 41
0.0
 71
     1
 72
     2
  1
\fHelvetica|b0|i0; 
  7
STD
 73
     1
 44
1.0
  0
MTEXT
  5
15A
330
1F
100
AcDbEntity
  8
EBENE_1
 62
     7
100
AcDbMText
 10
72.18422444661458
 20
160.0016606083623
 30
0.0
 40
3.674768518518519
 41
0.0
 71
     1
 72
     2
  1
\fHelvetica|b1|i0;
  7
STD
 73
     1
 44
1.0
  0
INSERT
  5
147
330
1F
100
AcDbEntity
  8
EBENE_1
 62
     7
100
AcDbBlockReference
  2
AI9-BLK15
 10
55.80899658203124
 20
182.4522569444444
 30
0.0
  0
INSERT
  5
12F
330
1F
100
AcDbEntity
  8
EBENE_1
 62
     7
100
AcDbBlockReference
  2
AI9-BLK13
 10
132.1412021213108
 20
113.9881327311198
 30
0.0
  0
MTEXT
  5
12D
330
1F
100
AcDbEntity
  8
EBENE_1
 62
     7
100
AcDbMText
 10
191.7165616043897
 20
101.2351643880208
 30
0.0
 40
1.782394016269969
 41
0.0
 71
     1
 72
     2
  1
\fHelvetica|b0|i0;500.0 
  7
STD
 11
0.0
 21
1.0
 31
0.0
 73
     1
 44
1.0
  0
MTEXT
  5
12C
330
1F
100
AcDbEntity
  8
EBENE_1
 62
     7
100
AcDbMText
 10
98.81852829275779
 20
100.882386610243
 30
0.0
 40
1.782394016269969
 41
0.0
 71
     1
 72
     2
  1
\fHelvetica|b0|i0;300.0 
  7
STD
 11
0.0
 21
1.0
 31
0.0
 73
     1
 44
1.0
  0
MTEXT
  5
12B
330
1F
100
AcDbEntity
  8
EBENE_1
 62
     7
100
AcDbMText
 10
143.620961560987
 20
105.9384087456597
 30
0.0
 40
1.782394016269969
 41
0.0
 71
     1
 72
     2
  1
\fHelvetica|b0|i0;50.0 
  7
STD
 11
0.0
 21
1.0
 31
0.0
 73
     1
 44
1.0
  0
MTEXT
  5
12A
330
1F
100
AcDbEntity
  8
EBENE_1
 62
     7
100
AcDbMText
 10
160.2289794921875
 20
112.4526414121033
 30
0.0
 40
1.782394016269969
 41
0.0
 71
     1
 72
     2
  1
\fHelvetica|b0|i0;175.0 
  7
STD
 73
     1
 44
1.0
  0
MTEXT
  5
129
330
1F
100
AcDbEntity
  8
EBENE_1
 62
     7
100
AcDbMText
 10
129.1617974175347
 20
125.9598272844991
 30
0.0
 40
1.782394016269969
 41
0.0
 71
     1
 72
     2
  1
\fHelvetica|b0|i0;1160.0 
  7
STD
 73
     1
 44
1.0
  0
LINE
  5
128
330
1F
100
AcDbEntity
  8
EBENE_1
 62
     7
100
AcDbLine
 10
106.0865478515625
 20
103.1778537326389
 30
0.0
 11
106.0803466796875
 21
130.6783284505208
 31
0.0
  0
LINE
  5
127
330
1F
100
AcDbEntity
  8
EBENE_1
 62
     7
100
AcDbLine
 10
181.0914442274305
 20
91.07557779947916
 30
0.0
 11
181.0721516927083
 21
130.6783284505208
 31
0.0
  0
INSERT
  5
115
330
1F
100
AcDbEntity
  8
EBENE_1
 62
     7
100
AcDbBlockReference
  2
AI9-BLK12
 10
143.5594543457031
 20
129.0804931640625
 30
0.0
  0
MTEXT
  5
113
330
1F
100
AcDbEntity
  8
EBENE_1
 62
     7
100
AcDbMText
 10
139.5098307291667
 20
131.839571750645
 30
0.0
 40
1.782394016269969
 41
0.0
 71
     1
 72
     2
  1
\fHelvetica|b0|i0;1700.0 
  7
STD
 73
     1
 44
1.0
  0
SPLINE
  5
112
330
1F
100
AcDbEntity
  8
EBENE_1
 62
     7
100
AcDbSpline
210
0.0
220
0.0
230
1.0
 70
     8
 71
     3
 72
    38
 73
    34
 74
     0
 42
0.00000001
 43
0.00000001
 40
0.0
 40
0.0
 40
0.0
 40
0.0
 40
1.0
 40
1.0
 40
1.0
 40
2.0
 40
2.0
 40
2.0
 40
3.0
 40
3.0
 40
3.0
 40
4.0
 40
4.0
 40
4.0
 40
5.0
 40
5.0
 40
5.0
 40
6.0
 40
6.0
 40
6.0
 40
7.0
 40
7.0
 40
7.0
 40
8.0
 40
8.0
 40
8.0
 40
9.0
 40
9.0
 40
9.0
 40
10.0
 40
10.0
 40
10.0
 40
11.0
 40
11.0
 40
11.0
 40
11.0
 10
188.0987684461805
 20
103.356654188368
 30
0.0
 10
188.0987684461805
 20
107.0056993272569
 30
0.0
 10
186.2952609592014
 20
110.2334092881944
 30
0.0
 10
183.5309163411458
 20
112.1971137152778
 30
0.0
 10
183.5309163411458
 20
112.1971137152778
 30
0.0
 10
182.4246961805555
 20
112.7631429036458
 30
0.0
 10
181.4986545138889
 20
112.8954345703125
 30
0.0
 10
180.7786295572917
 20
112.9984429253472
 30
0.0
 10
160.2269124348958
 20
115.4871799045139
 30
0.0
 10
153.1293267144097
 20
116.0263373480903
 30
0.0
 10
148.9728190104167
 20
116.341908094618
 30
0.0
 10
134.4469184027778
 20
116.8200873480903
 30
0.0
 10
133.1240017361111
 20
116.8200873480903
 30
0.0
 10
131.8010850694444
 20
116.8200873480903
 30
0.0
 10
125.7983506944444
 20
116.8603949652778
 30
0.0
 10
125.7983506944444
 20
116.8603949652778
 30
0.0
 10
124.1788113064236
 20
116.8603949652778
 30
0.0
 10
122.7391059027778
 20
116.0904161241319
 30
0.0
 10
121.8254665798611
 20
114.8966905381944
 30
0.0
 10
121.8254665798611
 20
114.8966905381944
 30
0.0
 10
120.1311686197917
 20
112.5777967664931
 30
0.0
 10
120.1311686197917
 20
112.5777967664931
 30
0.0
 10
119.2144287109375
 20
111.5266981336805
 30
0.0
 10
117.8653293185764
 20
110.8624837239583
 30
0.0
 10
116.3615451388889
 20
110.8624837239583
 30
0.0
 10
116.3615451388889
 20
110.8624837239583
 30
0.0
 10
113.5772189670139
 20
110.8624837239583
 30
0.0
 10
113.5772189670139
 20
110.8624837239583
 30
0.0
 10
109.4351806640625
 20
110.8624837239583
 30
0.0
 10
106.07724609375
 20
107.5045491536458
 30
0.0
 10
106.07724609375
 20
103.3625108506944
 30
0.0
 10
106.07724609375
 20
99.22047254774304
 30
0.0
 10
109.4351806640625
 20
95.86253797743055
 30
0.0
 10
113.5772189670139
 20
95.86253797743055
 30
0.0
  0
SPLINE
  5
111
330
1F
100
AcDbEntity
  8
EBENE_1
 62
     7
100
AcDbSpline
210
0.0
220
0.0
230
1.0
 70
     8
 71
     3
 72
    38
 73
    34
 74
     0
 42
0.00000001
 43
0.00000001
 40
0.0
 40
0.0
 40
0.0
 40
0.0
 40
1.0
 40
1.0
 40
1.0
 40
2.0
 40
2.0
 40
2.0
 40
3.0
 40
3.0
 40
3.0
 40
4.0
 40
4.0
 40
4.0
 40
5.0
 40
5.0
 40
5.0
 40
6.0
 40
6.0
 40
6.0
 40
7.0
 40
7.0
 40
7.0
 40
8.0
 40
8.0
 40
8.0
 40
9.0
 40
9.0
 40
9.0
 40
10.0
 40
10.0
 40
10.0
 40
11.0
 40
11.0
 40
11.0
 40
11.0
 10
188.0987684461805
 20
103.3690565321181
 30
0.0
 10
188.0987684461805
 20
99.72001139322916
 30
0.0
 10
186.2952609592014
 20
96.49230143229165
 30
0.0
 10
183.5309163411458
 20
94.52859700520833
 30
0.0
 10
183.5309163411458
 20
94.52859700520833
 30
0.0
 10
182.4246961805555
 20
93.96256781684026
 30
0.0
 10
181.4986545138889
 20
93.8302761501736
 30
0.0
 10
180.7786295572917
 20
93.72726779513889
 30
0.0
 10
160.2269124348958
 20
91.23853081597221
 30
0.0
 10
153.1293267144097
 20
90.69937337239583
 30
0.0
 10
148.9728190104167
 20
90.38380262586804
 30
0.0
 10
134.4469184027778
 20
89.90562337239582
 30
0.0
 10
133.1240017361111
 20
89.90562337239582
 30
0.0
 10
131.8010850694444
 20
89.90562337239582
 30
0.0
 10
125.7983506944444
 20
89.86531575520833
 30
0.0
 10
125.7983506944444
 20
89.86531575520833
 30
0.0
 10
124.1788113064236
 20
89.86531575520833
 30
0.0
 10
122.7391059027778
 20
90.63529459635416
 30
0.0
 10
121.8254665798611
 20
91.82902018229166
 30
0.0
 10
121.8254665798611
 20
91.82902018229166
 30
0.0
 10
120.1311686197917
 20
94.14791395399304
 30
0.0
 10
120.1311686197917
 20
94.14791395399304
 30
0.0
 10
119.2144287109375
 20
95.19901258680555
 30
0.0
 10
117.8653293185764
 20
95.86322699652777
 30
0.0
 10
116.3615451388889
 20
95.86322699652777
 30
0.0
 10
116.3615451388889
 20
95.86322699652777
 30
0.0
 10
113.5772189670139
 20
95.86322699652777
 30
0.0
 10
113.5772189670139
 20
95.86322699652777
 30
0.0
 10
109.4351806640625
 20
95.86322699652777
 30
0.0
 10
106.07724609375
 20
99.22116156684027
 30
0.0
 10
106.07724609375
 20
103.3631998697917
 30
0.0
 10
106.07724609375
 20
107.505238172743
 30
0.0
 10
109.4351806640625
 20
110.8631727430555
 30
0.0
 10
113.5772189670139
 20
110.8631727430555
 30
0.0
  0
SPLINE
  5
110
330
1F
100
AcDbEntity
  8
EBENE_1
 62
     7
100
AcDbSpline
210
0.0
220
0.0
230
1.0
 70
     8
 71
     3
 72
     8
 73
     4
 74
     0
 42
0.00000001
 43
0.00000001
 40
0.0
 40
0.0
 40
0.0
 40
0.0
 40
1.0
 40
1.0
 40
1.0
 40
1.0
 10
126.5528266059028
 20
103.3928276909722
 30
0.0
 10
126.5528266059028
 20
107.1938015407986
 30
0.0
 10
127.3234944661458
 20
110.81494140625
 30
0.0
 10
128.7163465711805
 20
114.1084526909722
 30
0.0
  0
SPLINE
  5
10F
330
1F
100
AcDbEntity
  8
EBENE_1
 62
     7
100
AcDbSpline
210
0.0
220
0.0
230
1.0
 70
    11
 71
     3
 72
    29
 73
    25
 74
     0
 42
0.00000001
 43
0.00000001
 40
0.0
 40
0.0
 40
0.0
 40
0.0
 40
1.0
 40
1.0
 40
1.0
 40
2.0
 40
2.0
 40
2.0
 40
3.0
 40
3.0
 40
3.0
 40
4.0
 40
4.0
 40
4.0
 40
5.0
 40
5.0
 40
5.0
 40
6.0
 40
6.0
 40
6.0
 40
7.0
 40
7.0
 40
7.0
 40
8.0
 40
8.0
 40
8.0
 40
8.0
 10
148.5097981770833
 20
74.4140625
 30
0.0
 10
148.5097981770833
 20
74.13811035156249
 30
0.0
 10
148.2858669704861
 20
73.91417914496527
 30
0.0
 10
148.0095703125
 20
73.91417914496527
 30
0.0
 10
148.0095703125
 20
73.91417914496527
 30
0.0
 10
143.6342990451389
 20
73.91417914496527
 30
0.0
 10
143.6342990451389
 20
73.91417914496527
 30
0.0
 10
143.3580023871528
 20
73.91417914496527
 30
0.0
 10
143.1340711805555
 20
74.13811035156249
 30
0.0
 10
143.1340711805555
 20
74.4140625
 30
0.0
 10
143.1340711805555
 20
74.4140625
 30
0.0
 10
143.1340711805555
 20
74.48951009114583
 30
0.0
 10
143.1340711805555
 20
74.48951009114583
 30
0.0
 10
143.1340711805555
 20
74.76546223958333
 30
0.0
 10
143.3580023871528
 20
74.98939344618054
 30
0.0
 10
143.6342990451389
 20
74.98939344618054
 30
0.0
 10
143.6342990451389
 20
74.98939344618054
 30
0.0
 10
148.0095703125
 20
74.98939344618054
 30
0.0
 10
148.0095703125
 20
74.98939344618054
 30
0.0
 10
148.2858669704861
 20
74.98939344618054
 30
0.0
 10
148.5097981770833
 20
74.76546223958333
 30
0.0
 10
148.5097981770833
 20
74.48951009114583
 30
0.0
 10
148.5097981770833
 20
74.48951009114583
 30
0.0
 10
148.5097981770833
 20
74.4140625
 30
0.0
 10
148.5097981770833
 20
74.4140625
 30
0.0
  0
SPLINE
  5
10E
330
1F
100
AcDbEntity
  8
EBENE_1
 62
     7
100
AcDbSpline
210
0.0
220
0.0
230
1.0
 70
     8
 71
     3
 72
    20
 73
    16
 74
     0
 42
0.00000001
 43
0.00000001
 40
0.0
 40
0.0
 40
0.0
 40
0.0
 40
1.0
 40
1.0
 40
1.0
 40
2.0
 40
2.0
 40
2.0
 40
3.0
 40
3.0
 40
3.0
 40
4.0
 40
4.0
 40
4.0
 40
5.0
 40
5.0
 40
5.0
 40
5.0
 10
141.8311360677083
 20
90.13816731770832
 30
0.0
 10
141.8311360677083
 20
90.13816731770832
 30
0.0
 10
141.8311360677083
 20
75.4251980251736
 30
0.0
 10
141.8311360677083
 20
75.4251980251736
 30
0.0
 10
141.8311360677083
 20
74.32070041232639
 30
0.0
 10
142.7265163845486
 20
73.4253200954861
 30
0.0
 10
143.8313585069444
 20
73.4253200954861
 30
0.0
 10
143.8313585069444
 20
73.4253200954861
 30
0.0
 10
148.040576171875
 20
73.4253200954861
 30
0.0
 10
148.040576171875
 20
73.4253200954861
 30
0.0
 10
149.1454182942708
 20
73.4253200954861
 30
0.0
 10
150.0407986111111
 20
74.32070041232639
 30
0.0
 10
150.0407986111111
 20
75.4251980251736
 30
0.0
 10
150.0407986111111
 20
75.4251980251736
 30
0.0
 10
150.0407986111111
 20
90.52884114583333
 30
0.0
 10
150.0407986111111
 20
90.52884114583333
 30
0.0
  0
LWPOLYLINE
  5
108
330
1F
100
AcDbEntity
  8
EBENE_1
 62
     7
100
AcDbPolyline
 90
        4
 70
     0
 43
0.0
 10
138.8666314019097
 20
90.04032660590276
 10
138.8666314019097
 20
74.98904893663193
 10
141.7987521701389
 20
74.98904893663193
 10
141.7987521701389
 20
90.13816731770832
  0
CIRCLE
  5
107
330
1F
100
AcDbEntity
  8
EBENE_1
 62
     7
100
AcDbCircle
 10
132.8547675238715
 20
115.6239501953125
 30
0.0
 40
0.6795450846354166
  0
CIRCLE
  5
106
330
1F
100
AcDbEntity
  8
EBENE_1
 62
     7
100
AcDbCircle
 10
130.7270765516493
 20
116.1079861111111
 30
0.0
 40
0.6795450846354166
  0
CIRCLE
  5
105
330
1F
100
AcDbEntity
  8
EBENE_1
 62
     7
100
AcDbCircle
 10
135.063762749566
 20
115.7276475694444
 30
0.0
 40
0.6795450846354166
  0
SPLINE
  5
104
330
1F
100
AcDbEntity
  8
EBENE_1
 62
     7
100
AcDbSpline
210
0.0
220
0.0
230
1.0
 70
     8
 71
     3
 72
    11
 73
     7
 74
     0
 42
0.00000001
 43
0.00000001
 40
0.0
 40
0.0
 40
0.0
 40
0.0
 40
1.0
 40
1.0
 40
1.0
 40
2.0
 40
2.0
 40
2.0
 40
2.0
 10
136.1908257378472
 20
114.9128824869792
 30
0.0
 10
135.3612467447917
 20
114.4722547743055
 30
0.0
 10
134.4152235243055
 20
114.2224853515625
 30
0.0
 10
133.4109781901041
 20
114.2224853515625
 30
0.0
 10
132.0332845052083
 20
114.2224853515625
 30
0.0
 10
130.7654893663194
 20
114.6920518663194
 30
0.0
 10
129.7581434461806
 20
115.4796006944444
 30
0.0
  0
SPLINE
  5
103
330
1F
100
AcDbEntity
  8
EBENE_1
 62
     7
100
AcDbSpline
210
0.0
220
0.0
230
1.0
 70
     8
 71
     3
 72
    11
 73
     7
 74
     0
 42
0.00000001
 43
0.00000001
 40
0.0
 40
0.0
 40
0.0
 40
0.0
 40
1.0
 40
1.0
 40
1.0
 40
2.0
 40
2.0
 40
2.0
 40
2.0
 10
135.1345594618055
 20
116.9344645182292
 30
0.0
 10
134.6250298394097
 20
116.6633355034722
 30
0.0
 10
134.0434977213542
 20
116.5100287543403
 30
0.0
 10
133.426136610243
 20
116.5100287543403
 30
0.0
 10
132.5652072482639
 20
116.5100287543403
 30
0.0
 10
131.7735243055556
 20
116.8087185329861
 30
0.0
 10
131.1499620225694
 20
117.3082573784722
 30
0.0
  0
SPLINE
  5
102
330
1F
100
AcDbEntity
  8
EBENE_1
 62
     7
100
AcDbSpline
210
0.0
220
0.0
230
1.0
 70
     8
 71
     3
 72
    14
 73
    10
 74
     0
 42
0.00000001
 43
0.00000001
 40
0.0
 40
0.0
 40
0.0
 40
0.0
 40
1.0
 40
1.0
 40
1.0
 40
2.0
 40
2.0
 40
2.0
 40
3.0
 40
3.0
 40
3.0
 40
3.0
 10
131.1499620225694
 20
117.3130805121528
 30
0.0
 10
130.9604817708333
 20
117.4505398220486
 30
0.0
 10
130.7275933159722
 20
117.5318440755208
 30
0.0
 10
130.4754123263889
 20
117.5318440755208
 30
0.0
 10
129.8397922092014
 20
117.5318440755208
 30
0.0
 10
129.3244059244792
 20
117.01611328125
 30
0.0
 10
129.3244059244792
 20
116.3798041449653
 30
0.0
 10
129.3244059244792
 20
116.0118679470486
 30
0.0
 10
129.4973497178819
 20
115.6838948567708
 30
0.0
 10
129.7664116753472
 20
115.4733995225694
 30
0.0
  0
SPLINE
  5
101
330
1F
100
AcDbEntity
  8
EBENE_1
 62
     7
100
AcDbSpline
210
0.0
220
0.0
230
1.0
 70
     8
 71
     3
 72
    14
 73
    10
 74
     0
 42
0.00000001
 43
0.00000001
 40
0.0
 40
0.0
 40
0.0
 40
0.0
 40
1.0
 40
1.0
 40
1.0
 40
2.0
 40
2.0
 40
2.0
 40
3.0
 40
3.0
 40
3.0
 40
3.0
 10
136.1973714192708
 20
114.9063368055555
 30
0.0
 10
136.5470486111111
 20
115.1037407769097
 30
0.0
 10
136.7830376519097
 20
115.4789116753472
 30
0.0
 10
136.7830376519097
 20
115.9092041015625
 30
0.0
 10
136.7830376519097
 20
116.5444797092014
 30
0.0
 10
136.2676513671875
 20
117.0605550130208
 30
0.0
 10
135.63203125
 20
117.0605550130208
 30
0.0
 10
135.4477186414931
 20
117.0605550130208
 30
0.0
 10
135.2737413194444
 20
117.0171468098958
 30
0.0
 10
135.1194010416667
 20
116.9399766710069
 30
0.0
  0
LWPOLYLINE
  5
FB
330
1F
100
AcDbEntity
  8
EBENE_1
 62
     7
100
AcDbPolyline
 90
        4
 70
     0
 43
0.0
 10
128.7163465711805
 20
103.3838704427083
 10
128.7163465711805
 20
114.1084526909722
 10
150.2178765190972
 20
114.1084526909722
 10
150.2178765190972
 20
103.3838704427083
  0
LINE
  5
FA
330
1F
100
AcDbEntity
  8
EBENE_1
 62
     7
100
AcDbLine
 10
130.2053168402778
 20
103.3838704427083
 30
0.0
 11
130.2053168402778
 21
114.1084526909722
 31
0.0
  0
LWPOLYLINE
  5
F5
330
1F
100
AcDbEntity
  8
EBENE_1
 62
     7
100
AcDbPolyline
 90
        3
 70
     0
 43
0.0
 10
167.8126681857639
 20
103.3838704427083
 10
167.8126681857639
 20
114.1084526909722
 10
150.2178765190972
 20
114.1084526909722
  0
SPLINE
  5
F4
330
1F
100
AcDbEntity
  8
EBENE_1
 62
     7
100
AcDbSpline
210
0.0
220
0.0
230
1.0
 70
     8
 71
     3
 72
     8
 73
     4
 74
     0
 42
0.00000001
 43
0.00000001
 40
0.0
 40
0.0
 40
0.0
 40
0.0
 40
1.0
 40
1.0
 40
1.0
 40
1.0
 10
126.5528266059028
 20
103.3466634114583
 30
0.0
 10
126.5528266059028
 20
99.54568956163193
 30
0.0
 10
127.3234944661458
 20
95.92454969618055
 30
0.0
 10
128.7163465711805
 20
92.63103841145832
 30
0.0
  0
LWPOLYLINE
  5
EE
330
1F
100
AcDbEntity
  8
EBENE_1
 62
     7
100
AcDbPolyline
 90
        4
 70
     0
 43
0.0
 10
128.7163465711805
 20
103.3556206597222
 10
128.7163465711805
 20
92.63103841145832
 10
150.2178765190972
 20
92.63103841145832
 10
150.2178765190972
 20
103.3556206597222
  0
LINE
  5
ED
330
1F
100
AcDbEntity
  8
EBENE_1
 62
     7
100
AcDbLine
 10
130.2053168402778
 20
103.3556206597222
 30
0.0
 11
130.2053168402778
 21
92.63103841145832
 31
0.0
  0
LWPOLYLINE
  5
E8
330
1F
100
AcDbEntity
  8
EBENE_1
 62
     7
100
AcDbPolyline
 90
        3
 70
     0
 43
0.0
 10
167.8126681857639
 20
103.3556206597222
 10
167.8126681857639
 20
92.63103841145832
 10
150.2178765190972
 20
92.63103841145832
  0
LWPOLYLINE
  5
E1
330
1F
100
AcDbEntity
  8
EBENE_1
 62
     7
100
AcDbPolyline
 90
        5
 70
     0
 43
0.0
 10
167.8212809244791
 20
92.83567708333332
 10
167.8212809244791
 20
117.7468180338542
 10
170.761669921875
 20
117.7468180338542
 10
172.6099636501736
 20
115.8940456814236
 10
172.6099636501736
 20
92.91422526041666
  0
CIRCLE
  5
E0
330
1F
100
AcDbEntity
  8
EBENE_1
 62
     7
100
AcDbCircle
 10
170.3062282986111
 20
115.8850884331597
 30
0.0
 40
1.405943467881944
  0
CIRCLE
  5
DF
330
1F
100
AcDbEntity
  8
EBENE_1
 62
     7
100
AcDbCircle
 10
170.3062282986111
 20
115.8850884331597
 30
0.0
 40
0.7031439887152777
  0
LINE
  5
DE
330
1F
100
AcDbEntity
  8
EBENE_1
 62
     7
100
AcDbLine
 10
167.0010036892361
 20
114.5638943142361
 30
0.0
 11
169.3484917534722
 21
116.9110378689236
 31
0.0
  0
LINE
  5
DD
330
1F
100
AcDbEntity
  8
EBENE_1
 62
     7
100
AcDbLine
 10
167.8150797526042
 20
113.4011745876736
 30
0.0
 11
169.8032443576389
 21
115.3889946831597
 31
0.0
  0
LINE
  5
DC
330
1F
100
AcDbEntity
  8
EBENE_1
 62
     7
100
AcDbLine
 10
167.8023328993056
 20
112.0283040364583
 30
0.0
 11
170.2473171657986
 21
114.4736328125
 31
0.0
  0
SPLINE
  5
DB
330
1F
100
AcDbEntity
  8
EBENE_1
 62
     7
100
AcDbSpline
210
0.0
220
0.0
230
1.0
 70
     8
 71
     3
 72
    11
 73
     7
 74
     0
 42
0.00000001
 43
0.00000001
 40
0.0
 40
0.0
 40
0.0
 40
0.0
 40
1.0
 40
1.0
 40
1.0
 40
2.0
 40
2.0
 40
2.0
 40
2.0
 10
171.0421006944444
 20
114.1053521050347
 30
0.0
 10
176.375453016493
 20
113.4283908420139
 30
0.0
 10
181.0873101128472
 20
108.8743191189236
 30
0.0
 10
181.0873101128472
 20
103.356654188368
 30
0.0
 10
181.0873101128472
 20
97.82107476128472
 30
0.0
 10
176.3475477430555
 20
93.25460069444443
 30
0.0
 10
170.9880126953125
 20
92.60141059027777
 30
0.0
  0
LINE
  5
DA
330
1F
100
AcDbEntity
  8
EBENE_1
 62
     7
100
AcDbLine
 10
167.7696044921875
 20
100.8613715277778
 30
0.0
 11
150.218910047743
 21
100.8613715277778
 31
0.0
  0
LINE
  5
D9
330
1F
100
AcDbEntity
  8
EBENE_1
 62
     7
100
AcDbLine
 10
159.0703938802083
 20
112.4816786024305
 30
0.0
 11
159.0703938802083
 21
94.9309841579861
 31
0.0
  0
INSERT
  5
1B5
330
1F
100
AcDbEntity
  8
EBENE_1
 62
     7
100
AcDbBlockReference
  2
AI9-BLK11
 10
158.776527235243
 20
101.0176927354601
 30
0.0
  0
INSERT
  5
1B6
330
1F
100
AcDbEntity
  8
EBENE_1
 62
     7
100
AcDbBlockReference
  2
AI9-BLK9
 10
106.8921834309896
 20
103.3455437554253
 30
0.0
  0
INSERT
  5
87
330
1F
100
AcDbEntity
  8
EBENE_1
 62
     7
100
AcDbBlockReference
  2
AI9-BLK7
 10
125.7160129123264
 20
103.287838406033
 30
0.0
  0
INSERT
  5
77
330
1F
100
AcDbEntity
  8
EBENE_1
 62
     7
100
AcDbBlockReference
  2
AI9-BLK5
 10
164.4757486979167
 20
92.81862386067708
 30
0.0
  0
LWPOLYLINE
  5
70
330
1F
100
AcDbEntity
  8
EBENE_1
 62
     7
100
AcDbPolyline
 90
        4
 70
     0
 43
0.0
 10
151.7030571831597
 20
100.8358778211805
 10
151.4233154296875
 20
99.367578125
 10
151.9593722873264
 20
99.367578125
 10
151.7030571831597
 20
100.8358778211805
  0
HATCH
  5
6F
330
1F
100
AcDbEntity
  8
EBENE_1
 62
     7
100
AcDbHatch
 10
0.0
 20
0.0
 30
0.0
210
0.0
220
0.0
230
1.0
  2
SOLID
 70
     1
 71
     0
 91
        1
 92
        3
 72
     0
 73
     1
 93
        3
 10
151.7030571831597
 20
100.8358778211805
 10
151.4233154296875
 20
99.367578125
 10
151.9593722873264
 20
99.367578125
 97
        0
 75
     0
 76
     1
 98
        1
 10
0.0
 20
0.0
  0
LWPOLYLINE
  5
68
330
1F
100
AcDbEntity
  8
EBENE_1
 62
     7
100
AcDbPolyline
 90
        5
 70
     0
 43
0.0
 10
151.6927218967014
 20
107.2144721137153
 10
151.6892768012153
 20
103.3342610677083
 10
151.9690185546875
 20
104.8029052734375
 10
151.4329616970486
 20
104.8029052734375
 10
151.6892768012153
 20
103.3342610677083
  0
HATCH
  5
67
330
1F
100
AcDbEntity
  8
EBENE_1
 62
     7
100
AcDbHatch
 10
0.0
 20
0.0
 30
0.0
210
0.0
220
0.0
230
1.0
  2
SOLID
 70
     1
 71
     0
 91
        1
 92
        3
 72
     0
 73
     1
 93
        5
 10
151.6927218967014
 20
107.2144721137153
 10
151.6892768012153
 20
103.3342610677083
 10
151.9690185546875
 20
104.8029052734375
 10
151.4329616970486
 20
104.8029052734375
 10
151.6892768012153
 20
103.3342610677083
 97
        0
 75
     0
 76
     1
 98
        1
 10
0.0
 20
0.0
  0
LINE
  5
66
330
1F
100
AcDbEntity
  8
EBENE_1
 62
     7
100
AcDbLine
 10
151.7044352213541
 20
100.756640625
 30
0.0
 11
151.6927218967014
 21
97.20302463107637
 31
0.0
  0
INSERT
  5
4E
330
1F
100
AcDbEntity
  8
EBENE_1
 62
     7
100
AcDbBlockReference
  2
AI9-BLK3
 10
188.8372246636285
 20
103.4399393717448
 30
0.0
  0
INSERT
  5
37
330
1F
100
AcDbEntity
  8
EBENE_1
 62
     7
100
AcDbBlockReference
  2
AI9-BLK1
 10
163.452210828993
 20
109.7914035373264
 30
0.0
  0
LINE
  5
35
330
1F
100
AcDbEntity
  8
EBENE_1
 62
     7
100
AcDbLine
 10
151.7023681640625
 20
102.1787760416667
 30
0.0
 11
147.1135009765625
 21
106.7121771918403
 31
0.0
  0
LINE
  5
34
330
1F
100
AcDbEntity
  8
EBENE_1
  6
AI9-LType1
 62
     7
100
AcDbLine
 10
103.1223876953125
 20
103.3600992838542
 30
0.0
 11
122.0004774305555
 21
103.3600992838542
 31
0.0
  0
MTEXT
  5
32
330
1F
100
AcDbEntity
  8
EBENE_1
 62
     7
100
AcDbMText
 10
169.1745144314236
 20
85.3250539262301
 30
0.0
 40
2.604177190118997
 41
0.0
 71
     1
 72
     2
  1
\f12 pt Helvetica* 55 Roman   05472|b0|i0;Installationskreis
  7
STD
 73
     1
 44
1.0
  0
MTEXT
  5
31
330
1F
100
AcDbEntity
  8
EBENE_1
 62
     7
100
AcDbMText
 10
150.2557725694444
 20
185.1901038394245
 30
0.0
 40
2.604177190118997
 41
0.0
 71
     1
 72
     2
  1
\f12 pt Helvetica* 55 Roman   05472|b0|i0;alle Maﾟe in mm
  7
STD
 73
     1
 44
1.0
  0
MTEXT
  5
2A
330
1F
100
AcDbEntity
  8
EBENE_1
 62
     7
100
AcDbMText
 10
122.5717726503967
 20
100.7649088541667
 30
0.0
 40
1.782394016269969
 41
0.0
 71
     1
 72
     2
  1
\fHelvetica|b0|i0;740.0 
  7
STD
 11
0.0
 21
1.0
 31
0.0
 73
     1
 44
1.0
  0
LINE
  5
29
330
1F
100
AcDbEntity
  8
EBENE_1
 62
     7
100
AcDbLine
 10
159.0793511284722
 20
124.8011678059896
 30
0.0
 11
159.0793511284722
 21
100.8882432725694
 31
0.0
  0
LINE
  5
185
330
1F
100
AcDbEntity
  8
EBENE_1
  6
AI9-LType1
 62
     7
100
AcDbLine
 10
124.7951388888889
 20
103.3600992838542
 30
0.0
 11
189.112660047743
 21
103.3600992838542
 31
0.0
  0
ENDSEC
  0
SECTION
  2
OBJECTS
  0
DICTIONARY
  5
C
330
0
100
AcDbDictionary
281
     1
  3
ACAD_COLOR
350
6C
  3
ACAD_GROUP
350
D
  3
ACAD_LAYOUT
350
1A
  3
ACAD_MATERIAL
350
6B
  3
ACAD_MLEADERSTYLE
350
1DA
  3
ACAD_MLINESTYLE
350
17
  3
ACAD_PLOTSETTINGS
350
19
  3
ACAD_PLOTSTYLENAME
350
E
  3
ACAD_SCALELIST
350
99
  3
ACAD_TABLESTYLE
350
92
  3
ACAD_WIPEOUT_VARS
350
209
  3
ACDBHEADERROUNDTRIPXREC
350
22A
  3
AcDbVariableDictionary
350
59
  3
DWGPROPS
350
22D
  0
DICTIONARY
  5
228
330
1F
100
AcDbDictionary
280
     1
281
     1
  0
DICTIONARY
  5
6C
102
{ACAD_REACTORS
330
C
102
}
330
C
100
AcDbDictionary
281
     1
  0
DICTIONARY
  5
D
102
{ACAD_REACTORS
330
C
102
}
330
C
100
AcDbDictionary
281
     1
  0
DICTIONARY
  5
1A
102
{ACAD_REACTORS
330
C
102
}
330
C
100
AcDbDictionary
281
     1
  3
Layout1
350
74
  3
Model
350
22
  0
DICTIONARY
  5
6B
102
{ACAD_REACTORS
330
C
102
}
330
C
100
AcDbDictionary
281
     1
  0
DICTIONARY
  5
1DA
102
{ACAD_REACTORS
330
C
102
}
330
C
100
AcDbDictionary
281
     1
  0
DICTIONARY
  5
17
102
{ACAD_REACTORS
330
C
102
}
330
C
100
AcDbDictionary
281
     1
  3
Standard
350
18
  0
DICTIONARY
  5
19
102
{ACAD_REACTORS
330
C
102
}
330
C
100
AcDbDictionary
281
     1
  0
ACDBDICTIONARYWDFLT
  5
E
102
{ACAD_REACTORS
330
C
102
}
330
C
100
AcDbDictionary
281
     1
  3
Normal
350
F
100
AcDbDictionaryWithDefault
340
F
  0
DICTIONARY
  5
99
102
{ACAD_REACTORS
330
C
102
}
330
C
100
AcDbDictionary
281
     1
  3
A0
350
9A
  3
A1
350
9B
  3
A2
350
9C
  3
A3
350
9D
  3
A4
350
9E
  3
A5
350
9F
  3
A6
350
A0
  3
A7
350
A1
  3
A8
350
A2
  3
A9
350
A3
  3
B0
350
A4
  3
B1
350
A5
  3
B2
350
A6
  3
B3
350
A7
  3
B4
350
A8
  3
B5
350
A9
  3
B6
350
AA
  3
B7
350
AB
  3
B8
350
AC
  3
B9
350
AD
  3
C0
350
AE
  3
C1
350
AF
  3
C2
350
B0
  3
C3
350
B1
  3
C4
350
B2
  3
C5
350
B3
  3
C6
350
B4
  3
C7
350
B5
  3
C8
350
B6
  3
C9
350
B7
  3
D0
350
B8
  3
D1
350
B9
  3
D2
350
BA
  0
DICTIONARY
  5
92
102
{ACAD_REACTORS
330
C
102
}
330
C
100
AcDbDictionary
281
     1
  0
WIPEOUTVARIABLES
  5
209
102
{ACAD_REACTORS
330
C
330
99
102
}
330
C
100
AcDbWipeoutVariables
 70
     1
  0
DICTIONARY
  5
22A
102
{ACAD_REACTORS
330
C
102
}
330
C
100
AcDbDictionary
281
     1
  3
COLORDICT
350
22B
  3
MATERIALDICT
350
22C
  0
DICTIONARY
  5
59
102
{ACAD_REACTORS
330
C
102
}
330
C
100
AcDbDictionary
281
     1
  3
CANNOSCALE
350
229
  3
CTABLESTYLE
350
207
  3
DIMASSOC
350
182
  3
HIDETEXT
350
208
  0
XRECORD
  5
22D
102
{ACAD_REACTORS
330
C
102
}
330
C
100
AcDbXrecord
280
     1
  1
DWGPROPS COOKIE
  2

  3

  4

  6

  7

  8
pspoetzl
  9

300
=
301
=
302
=
303
=
304
=
305
=
306
=
307
=
308
=
309
=
 40
0.0
 41
2453353.717125822
 42
2455328.536171841
  1

 90
        0
  0
LAYOUT
  5
74
102
{ACAD_REACTORS
330
1A
102
}
330
1A
100
AcDbPlotSettings
  1

  2
\\ADSCCNDC1\hq601xrx1
  4

  6

 40
0.0
 41
0.0
 42
0.0
 43
0.0
 44
0.0
 45
0.0
 46
0.0
 47
0.0
 48
0.0
 49
0.0
140
0.0
141
0.0
142
1.0
143
1.0
 70
   544
 72
     0
 73
     0
 74
     0
  7

 75
    16
147
1.0
148
0.0
149
0.0
100
AcDbLayout
  1
Layout1
 70
     0
 71
     0
 10
0.0
 20
0.0
 11
0.0
 21
0.0
 12
0.0
 22
0.0
 32
0.0
 14
0.0
 24
0.0
 34
0.0
 15
0.0
 25
0.0
 35
0.0
146
0.0
 13
0.0
 23
0.0
 33
0.0
 16
1.0
 26
0.0
 36
0.0
 17
0.0
 27
1.0
 37
0.0
 76
     0
330
73
  0
LAYOUT
  5
22
102
{ACAD_REACTORS
330
1A
102
}
330
1A
100
AcDbPlotSettings
  1

  2
none_device
  4
ISO_C5_(229.00_x_162.00_MM)
  6

 40
0.0
 41
0.0
 42
0.0
 43
0.0
 44
229.0
 45
162.0
 46
0.0
 47
0.0
 48
0.0
 49
0.0
140
0.0
141
0.0
142
1.0
143
1.0
 70
 11936
 72
     1
 73
     0
 74
     0
  7

 75
     0
147
0.6658513408798229
148
0.0
149
0.0
100
AcDbLayout
  1
Model
 70
     1
 71
     0
 10
32.58061252170138
 20
7.584722222222221
 11
269.2307671440972
 21
187.8887898763021
 12
0.0
 22
0.0
 32
0.0
 14
32.83089870876735
 24
8.257337938079605
 34
0.0
 15
269.4460701691422
 25
187.8887898763021
 35
0.0
146
0.0
 13
0.0
 23
0.0
 33
0.0
 16
1.0
 26
0.0
 36
0.0
 17
0.0
 27
1.0
 37
0.0
 76
     0
330
1F
331
97
  0
MLINESTYLE
  5
18
102
{ACAD_REACTORS
330
17
102
}
330
17
100
AcDbMlineStyle
  2
Standard
 70
     0
  3

 62
     0
 51
90.0000000000002
 52
90.0000000000002
 71
     2
 49
0.5
 62
   256
  6
BYLAYER
 49
-0.5
 62
   256
  6
BYLAYER
  0
ACDBPLACEHOLDER
  5
F
102
{ACAD_REACTORS
330
E
102
}
330
E
  0
SCALE
  5
9A
102
{ACAD_REACTORS
330
99
102
}
330
99
100
AcDbScale
 70
     0
300
1:1
140
1.0
141
1.0
290
     1
  0
SCALE
  5
9B
102
{ACAD_REACTORS
330
99
102
}
330
99
100
AcDbScale
 70
     0
300
1:2
140
1.0
141
2.0
290
     0
  0
SCALE
  5
9C
102
{ACAD_REACTORS
330
99
102
}
330
99
100
AcDbScale
 70
     0
300
1:4
140
1.0
141
4.0
290
     0
  0
SCALE
  5
9D
102
{ACAD_REACTORS
330
99
102
}
330
99
100
AcDbScale
 70
     0
300
1:5
140
1.0
141
5.0
290
     0
  0
SCALE
  5
9E
102
{ACAD_REACTORS
330
99
102
}
330
99
100
AcDbScale
 70
     0
300
1:8
140
1.0
141
8.0
290
     0
  0
SCALE
  5
9F
102
{ACAD_REACTORS
330
99
102
}
330
99
100
AcDbScale
 70
     0
300
1:10
140
1.0
141
10.0
290
     0
  0
SCALE
  5
A0
102
{ACAD_REACTORS
330
99
102
}
330
99
100
AcDbScale
 70
     0
300
1:16
140
1.0
141
16.0
290
     0
  0
SCALE
  5
A1
102
{ACAD_REACTORS
330
99
102
}
330
99
100
AcDbScale
 70
     0
300
1:20
140
1.0
141
20.0
290
     0
  0
SCALE
  5
A2
102
{ACAD_REACTORS
330
99
102
}
330
99
100
AcDbScale
 70
     0
300
1:30
140
1.0
141
30.0
290
     0
  0
SCALE
  5
A3
102
{ACAD_REACTORS
330
99
102
}
330
99
100
AcDbScale
 70
     0
300
1:40
140
1.0
141
40.0
290
     0
  0
SCALE
  5
A4
102
{ACAD_REACTORS
330
99
102
}
330
99
100
AcDbScale
 70
     0
300
1:50
140
1.0
141
50.0
290
     0
  0
SCALE
  5
A5
102
{ACAD_REACTORS
330
99
102
}
330
99
100
AcDbScale
 70
     0
300
1:100
140
1.0
141
100.0
290
     0
  0
SCALE
  5
A6
102
{ACAD_REACTORS
330
99
102
}
330
99
100
AcDbScale
 70
     0
300
2:1
140
2.0
141
1.0
290
     0
  0
SCALE
  5
A7
102
{ACAD_REACTORS
330
99
102
}
330
99
100
AcDbScale
 70
     0
300
4:1
140
4.0
141
1.0
290
     0
  0
SCALE
  5
A8
102
{ACAD_REACTORS
330
99
102
}
330
99
100
AcDbScale
 70
     0
300
8:1
140
8.0
141
1.0
290
     0
  0
SCALE
  5
A9
102
{ACAD_REACTORS
330
99
102
}
330
99
100
AcDbScale
 70
     0
300
10:1
140
10.0
141
1.0
290
     0
  0
SCALE
  5
AA
102
{ACAD_REACTORS
330
99
102
}
330
99
100
AcDbScale
 70
     0
300
100:1
140
100.0
141
1.0
290
     0
  0
SCALE
  5
AB
102
{ACAD_REACTORS
330
99
102
}
330
99
100
AcDbScale
 70
     0
300
1/128" = 1'-0"
140
0.0078125
141
12.0
290
     0
  0
SCALE
  5
AC
102
{ACAD_REACTORS
330
99
102
}
330
99
100
AcDbScale
 70
     0
300
1/64" = 1'-0"
140
0.015625
141
12.0
290
     0
  0
SCALE
  5
AD
102
{ACAD_REACTORS
330
99
102
}
330
99
100
AcDbScale
 70
     0
300
1/32" = 1'-0"
140
0.03125
141
12.0
290
     0
  0
SCALE
  5
AE
102
{ACAD_REACTORS
330
99
102
}
330
99
100
AcDbScale
 70
     0
300
1/16" = 1'-0"
140
0.0625
141
12.0
290
     0
  0
SCALE
  5
AF
102
{ACAD_REACTORS
330
99
102
}
330
99
100
AcDbScale
 70
     0
300
3/32" = 1'-0"
140
0.09375
141
12.0
290
     0
  0
SCALE
  5
B0
102
{ACAD_REACTORS
330
99
102
}
330
99
100
AcDbScale
 70
     0
300
1/8" = 1'-0"
140
0.125
141
12.0
290
     0
  0
SCALE
  5
B1
102
{ACAD_REACTORS
330
99
102
}
330
99
100
AcDbScale
 70
     0
300
3/16" = 1'-0"
140
0.1875
141
12.0
290
     0
  0
SCALE
  5
B2
102
{ACAD_REACTORS
330
99
102
}
330
99
100
AcDbScale
 70
     0
300
1/4" = 1'-0"
140
0.25
141
12.0
290
     0
  0
SCALE
  5
B3
102
{ACAD_REACTORS
330
99
102
}
330
99
100
AcDbScale
 70
     0
300
3/8" = 1'-0"
140
0.375
141
12.0
290
     0
  0
SCALE
  5
B4
102
{ACAD_REACTORS
330
99
102
}
330
99
100
AcDbScale
 70
     0
300
1/2" = 1'-0"
140
0.5
141
12.0
290
     0
  0
SCALE
  5
B5
102
{ACAD_REACTORS
330
99
102
}
330
99
100
AcDbScale
 70
     0
300
3/4" = 1'-0"
140
0.75
141
12.0
290
     0
  0
SCALE
  5
B6
102
{ACAD_REACTORS
330
99
102
}
330
99
100
AcDbScale
 70
     0
300
1" = 1'-0"
140
1.0
141
12.0
290
     0
  0
SCALE
  5
B7
102
{ACAD_REACTORS
330
99
102
}
330
99
100
AcDbScale
 70
     0
300
1-1/2" = 1'-0"
140
1.5
141
12.0
290
     0
  0
SCALE
  5
B8
102
{ACAD_REACTORS
330
99
102
}
330
99
100
AcDbScale
 70
     0
300
3" = 1'-0"
140
3.0
141
12.0
290
     0
  0
SCALE
  5
B9
102
{ACAD_REACTORS
330
99
102
}
330
99
100
AcDbScale
 70
     0
300
6" = 1'-0"
140
6.0
141
12.0
290
     0
  0
SCALE
  5
BA
102
{ACAD_REACTORS
330
99
102
}
330
99
100
AcDbScale
 70
     0
300
1'-0" = 1'-0"
140
12.0
141
12.0
290
     0
  0
XRECORD
  5
22B
102
{ACAD_REACTORS
330
22A
102
}
330
22A
100
AcDbXrecord
280
     1
340
6C
  0
XRECORD
  5
22C
102
{ACAD_REACTORS
330
22A
102
}
330
22A
100
AcDbXrecord
280
     1
340
6B
  0
DICTIONARYVAR
  5
229
102
{ACAD_REACTORS
330
59
102
}
330
59
100
DictionaryVariables
280
     0
  1
1:1
  0
DICTIONARYVAR
  5
207
102
{ACAD_REACTORS
330
59
102
}
330
59
100
DictionaryVariables
280
     0
  1

  0
DICTIONARYVAR
  5
182
102
{ACAD_REACTORS
330
59
102
}
330
59
100
DictionaryVariables
280
     0
  1
2
  0
DICTIONARYVAR
  5
208
102
{ACAD_REACTORS
330
59
102
}
330
59
100
DictionaryVariables
280
     0
  1
1
  0
ENDSEC
  0
EOF
